Coyotte Shivers

Sugarhigh(Tabs)

Coyotte Shivers

Key: E

roll up this ad to continue

	        Tuning: (E A D G B E) -- Standard 
 
 
{Intro} 
======= 
E|-----------------------------------------------------------------| 
B|-0---------------3---------------5---------------1-1-1-1-1-1-1-1-| 
G|-0---------------2---------------4---------------0-0-0-0-0-0-0-0-| 
D|-0---------------0---------------2---------------2-2-2-2-2-2-2-2-| 
A|-x------------------------------(2)--------------3-3-3-3-3-3-3-3-| 
E|-3---------------------------------------------------------------| 
 
 
{Verse} 
======= 
E|-------|-------|-------|-------| 
B|---0---|---3---|---0---|---1---| 
G|---0---|---2---|---0---|---0---| 
D|---0---|---0---|---2---|---2---| 
A|---x---|-------|---2---|---3---| 
E|---3---|-------|---0---|-------| 
 
 
{Pre-Chorus} 
============ 
E|---2---|---0---| 
B|---3---|---1---| 
G|---2---|---0---| 
D|---0---|---2---| 
A|-------|---3---| 
E|-------|-------| 
 
 
{Chorus} 
======== 
E|---3---|---2---|---0---|---0---| 
B|---0---|---3---|---0---|---1---| 
G|---0---|---2---|---0---|---0---| 
D|---0---|---0---|---2---|---2---| 
A|---x---|-------|---2---|---3---| 
E|---3---|-------|---0---|-------| 
 
 
{Interlude} 
=========== 
E|---10---|---8---| 
B|---10---|---8---| 
G|---12b--|--10b--| 
D|--------|-------| 
A|--------|-------| 
E|--------|-------| 
 

	        

Written by Coyote Shivers

See Also: