E-Chords
Chelsea Grin

The Foolish One (solo)(Tabs)

Chelsea Grin

roll up this ad to continue

e|--------------------------------------------------------------------------| 
B|--------------------------------------------------------------------------| 
G|-8h9-8-8~~~--8h9p8---8----------------------------------------------------| 
D|-------------------10-10~9~~~~~-------------------------------------------| 
A|------------------------------10h12p10p9h10-9-9~~~~~-7-9-9h10-9~~~~~------| 
E|--------------------------------------------------------------------------| 

e|-12-11--------------------------------------------------------------------| 
B|-------13-12-13-12-10----10-----------------------------------------------| 
G|----------------------12----12-11----11-----------------------------------| 
D|----------------------------------14----14-13-10-14-13-10----10-----------| 
A|----------------------------------------------------------14----14-12-10--| 
E|--------------------------------------------------------------------------| 

e|--------------------------------------------| 
B|--------------------------------------------| 
G|--------------------------------------------| 
D|--------------------------------------------| 
A|-14-12-10-9-10-9~~~~~-----------------------| 
E|--------------------------------------------| 

e|--------------------------------------------| 
B|--------------10-12~~12-10------------------| 
G|------9-11-12--------------12-11~~~~~-------| 
D|-9-13---------------------------------------| 
A|--------------------------------------------| 
E|--------------------------------------------| 

e|-------------10-14-19-14-10-----------------| 
B|----------12----------------12--------------| 
G|-------11----------------------11-----------| 
D|----12----------------------------12--------| 
A|-14----------------------------------14~~~~~| 
E|--------------------------------------------| 
share this page

See Also: