E-Chords
Cantemos a Jeová

Cântico 140(Tabs)

Cantemos a Jeová

roll up this ad to continue

E|------------------------------- 
B|-2-3-5~-----2-0~---2-3-5-----0- 
G|----------2---------------2---- 
D|------------------------------- 
A|------------------------------- 
E|------------------------------- 
 
 
E|------------------------------------ 
B|-2-3-5~-----2-0~---2-3-5------2~--0- 
G|----------2----------------2~------- 
D|------------------------------------ 
A|------------------------------------ 
E|------------------------------------ 
 
 
E|---------------2-4-5--4-5----------2~- 
B|-2-3-5--2-3-5--------------2--0------- 
G|---------------------------------2---- 
D|-------------------------------------- 
A|-------------------------------------- 
E|-------------------------------------- 
 
 
E|----12--14------12--14---16-17-19--16--14--12-- 
B|-15----------15-------------------------------- 
G|----------------------------------------------- 
D|----------------------------------------------- 
A|----------------------------------------------- 
E|----------------------------------------------- 
 
 
E|-14-16-17--16--14-16--12------14--12------12--17--21--17- 
B|--------------------------14----------15----------------- 
G|--------------------------------------------------------- 
D|--------------------------------------------------------- 
A|--------------------------------------------------------- 
E|--------------------------------------------------------- 
 

Refrão: 
 
E|-17-16-17------21--19---------- 
B|-----------17------------------ 
G|------------------------------- 
D|------------------------------- 
A|------------------------------- 
E|------------------------------- 
 
 
E|-17-19-21--19--17----------------16-17-17--21-17-19-- 
B|-------------------17---15-17-19--------------------- 
G|----------------------------------------------------- 
D|----------------------------------------------------- (2X) 
A|----------------------------------------------------- 
E|----------------------------------------------------- 
 
 
E|-17--16--17-------------------- 
B|------------------------------- 
G|------------------------------- 
D|------------------------------- 
A|------------------------------- 
E|------------------------------- 
share this page

See Also: