Bryan Sutton

Brown County Breakdown(Tabs)

Bryan Sutton

roll up this ad to continue

	        Part1: 
(repeat as heard on the CD) 
---------------0----------------0------0------0--2s4-7-4-4-4 
---------------0----------------0--0h2--------0--------5-5-5 
---------------1----1-4-0h1-----1-------------1--------4-4-4 
---------2-----2--4-------------2-------------2------------- 
-1h2--4----------------------------------------------------- 
------------0----------------0------------0----------------- 

---------------0---------------0------0--------------------- 
---------------0---------------0---0h2--2-0---2------0-----4-2- 
---------------1----1-4-0h1----1-------------1-1-0h1---0-1-- 
---------2-----2--4------------2---------------------------- 
-1h2--4----------------------------------------------------- 
-----------0----------------0------------------------------- 

Part2: 

------------------------------------------------------------ 
-----------------------2-------------------------------2---- 
---------1-------1-4-4---4-1------------1-------1-4-4---4-2-4 
-----2-4---4-2-4-------------4-2----2-4---4-2-4------------- 
-2-4-----------------------------2-4------------------------ 
------------------------------------------------------------ 

-----------0------------------------------------------------ 
-----0-2-0---2-0-----0-2---0---0----0--4-2------------------ 
-0h1-------------0h1-----1---1---0h1--1--------------------- 
------------------------------------------------------0---2- 
-------------------------------------------2-0-1-2--4---2--- 
------------------------------------------------------------ 



Enjoy and let me know if u need sound bytes or anything.
	        

See Also: