Broilers

Paul Der Hooligan(Tabs)

Broilers

roll up this ad to continue

	        
intro 

e------------------------------------------------------| 
H------------------------------------------------------| 
G-4--x-x-x-x-x-x-4--x-x-x-x-x-x-4--x-x-x-x-x-x-7-----7-| 
D-4--x-x-x-x-x-x-4--x-x-x-x-x-x-4--x-x-x-x-x-x-7--7--7-| 
A-2--x-x-x-x-x-x-2--x-x-x-x-x-x-2--x-x-x-x-x-x-5--7--5-| 
E-------------------------------------------------5----| 

pre-verse 

e---------------------| 
H----2-3-2---------2--| 
G-4--------4-2--------| 
D---------------4-----| 
A---------------------| 
E---------------------| 

verse 

e----------------|    *= continue as much as you need 
H----------------| 
G-4*----7*-------| 
D-4*----7*----7--| 
A-2*----5*----7--| 
E-------------5--| 

Pre-Chorus 

e-----------------| 
H-----------------| 
G-----------------| 
D-7-7-777-777-7-7-| 
A-7-7-777-777-7-7-| 
E-5-5-555-555-5-5-| 

Chorus 

e-------------| 
H-------------| 
G----9*-7*-7--| 
D-7*-9*-7*-7--| 
A-7*-7*-5*-7--| 
E-5*----------| 

then intro 
then verse 
then Pre-Chorus 
then Chorus 

interlude 
off-beat now 

e---------------------| 
H---------------------| 
G------------7-7--9-9-| 
D--7-7--9-9--7-7--9-9-| 
A--7-7--9-9--5-5--7-7-| 
E--5-5--7-7-----------| 

Pre-Chorus 

Chorus 


	        

Written by Sammy Amara

See Also: