E-Chords
Beat Happening

Godsend(Tabs)

Beat Happening

Key: C
Guitar 1: 

e|---------------------------------------------------------------------------| 
B|---------------------------------------------------------------------------| 
G|---------------------------------------------------------------------------| 
D|---------------------------------------------------------------------------| 
A|----------2-2-2-3-3-3-3-3-3-3----------------------------------------------| 
E|--3-3-3-3------------------------------------------------------------------| 

occassionaly play C and G chords 

Guitar 2: 

e|---------------------------------------------------------------------------| 
B|------0-0-----0-0----------------------------------------------------------| 
G|--2p0-----2p0--------------------------------------------------------------| 
D|---------------------------------------------------------------------------| 
A|---------------------------------------------------------------------------| 
E|---------------------------------------------------------------------------| 


************************************ 

| /   slide up 
| \   slide down 
| h   hammer-on 
| p   pull-off 
| ~   vibrato 
| +   harmonic 
| x   Mute note 
| b   Bend 
| pb  Pre-bend 
| br  Bend release 
| pbr Pre-bend release 
| brb Bend release bend 

************************************ 

roll up this ad to continue

share this page

See Also: