E-Chords
Backyard Babies

Friends(Tabs)

Backyard Babies

roll up this ad to continue

Intro & Verse 

e|-------------------| 
B|-------------------| 
G|-7-7-7-------------| 
D|-7-7-7-7---7-7-7-7-| 
A|-5-5-0-7---7-7-7-7-| 
E|-------5---0-0-5-5-| 


Chours 

...nothin' that touches me the way they do... 
e|---------------------------------------------| 
B|---------------------------------------------| 
G|-7-7-7-7-7-7---------------------------------| 
D|-7-7-7-7-7-7-7-7-7-7-7-7-7-7-2-2-2-2-7-7-7-7-| 
A|-5-5-5-5-5-5-7-7-7-7-7-7-7-7-2-2-2-2-7-7-7-7-| 
E|-------------5-5-5-5-5-5-5-5-0-0-0-0-5-5-5-5-| 

 
share this page

See Also: