Autograph

In The Night(Tabs)

Autograph

roll up this ad to continue

	        
intro
 
e|-----------------------------------| 
B|-----------------------------------| 
G|-----------------------------------| 
D|-------------------------2-------2-| 
A|---2---2---2---2---4-6-2---4-6-2---| 
E|-4---2---4---2---------------------| 

e|-----------------------------| 
B|---------------------------4-| 
G|---------------------------1-| 
D|-------------------------2---| 
A|---2---2---2---2---4-6-2-----| 
E|-4---2---4---2---------------| 

verse 

e|---------------------------------------------------------------| 
B|---------------------------------------------------------------| 
G|---------------------------------------------------------------| 
D|---------------------------------------------------------------| 
A|---------------------------------------------------------------| 
E|-1-1-1-3-3-3-3-3-5-5-5-3-3-3-3-3-5-5-5-5-5-5-5-5-5-5-5-5-5-5-3-| 
play this twice 

then play this 
e|---------------------------------| 
B|---------------------------------| 
G|---------------------------------| 
D|---------------------------------| 
A|-7-7-7-7-7-7-7-7-7-7-7-7-7-7-7-7-| 
E|-5-5-5-5-5-5-5-5-5-5-5-5-5-5-5-5-| 

e|---------------------------------| 
B|---------------------------------| 
G|---------------------------------| 
D|---------------------------------| 
A|-9-9-9-9-9-9-9-9-9-9-9-9-9-9-9-9-| 
E|-7-7-7-7-7-7-7-7-7-7-7-7-7-7-7-7-| 

chorus 

e|---------------------------------| 
B|---------------------------------| 
G|---------------------------------| 
D|-----------------------2-------2-| 
A|---2---2---2---2-4-6-2---4-6-2---| 
E|-4---2---4---2-------------------| 
play this twice 

then play this 
E|-----------------------------------------------------------| 
B|-----------------------------------------------------------| 
G|-----------------------------------------------------------| 
D|-----------------------------------------------------------| 
A|-3-3-3-3-5-5-5-5-7-7-7-7-5-5-5-5---7-7-7-7-5-5-5-5-3-3-3-3-| 
E|-1-1-1-1-3-3-3-3-5-5-5-5-3-3-3-3---5-5-5-5-3-3-3-3-1-1-1-1-| 



e|-------------------------------------------------| 
B|-------------------------------------------------| 
G|-------------------------------------------------| 
D|-------------------------------------------------| 
A|-3-3-3-3-5-5-5-5-7-7-7-7-7-7-7-7-7-7-7-7-7-7-7-7-| 
E|-1-1-1-1-3-3-3-3-5-5-5-5-5-5-5-5-5-5-5-5-5-5-5-5-| 

then reapeat the verse and chorus again 

bridge 

e|-----------------------------------------------------------------| 
B|-----------------------------------------------------------------| 
G|-----------------------------------------------------------------| 
D|-----------------------------------------------------------------| 
A|-----------------------------------------------------------------| 
E|-4-4-4-4-4-4-4-4-4-4-4-4-4-4-4-4-2-2-2-2-2-2-2-2-2-2-2-2-2-2-2-2-| 

e|-----------------------------------------------------------------| 
B|-----------------------------------------------------------------| 
G|-----------------------------------------------------------------| 
D|-----------------------------------------------------------------| 
A|-6-6-6-6-6-6-6-6-6-6-6-6-6-6-6-6-4-4-4-4-4-4-4-4-4-4-4-4-4-4-4-4-| 
E|-4-4-4-4-4-4-4-4-4-4-4-4-4-4-4-4-2-2-2-2-2-2-2-2-2-2-2-2-2-2-2-2-| 


	        

Written by Steve Plunkett, Randy Rand

See Also: