Autograph

Friday(Tabs)

Autograph

roll up this ad to continue

	        
intro 

e|------------------------------------------------------------| 
B|------------------------------------------------------------| 
G|------------------------------------------------------------| 
D|-5-x-x-4-x-x-5-x-x-4-x-x--5-5--4-x-x-2-x-x-4-x-x-2-x-x--4-5-| 
A|------------------------------------------------------------| 
E|------------------------------------------------------------| 

e|-------------------------------------------------------------| 
B|-------------------------------------------------------------| 
G|-------------------------------------------------------------| 
D|-2-x-x-0-x-x-2-x-x-0-x-x--2-2--2-x-x-2-x-x-0-x-x-0-x-x-0h2p0-| 
A|-------------------------------------------------------------| 
E|-------------------------------------------------------------| 
play this twice 

verse 

e|------------------------------------------------------------| 
B|------------------------------------------------------------| 
G|-7-x-x-6-x-x-7-x-x-6-x-x--7-7--6-x-x-4-x-x-6-x-x-4-x-x--6-7-| 
D|-5-x-x-4-x-x-5-x-x-4-x-x--5-5--4-x-x-2-x-x-4-x-x-2-x-x--4-5-| 
A|------------------------------------------------------------| 
E|------------------------------------------------------------| 

e|-------------------------------------------| 
B|-------------------------------------------| 
G|-4-x-x-2-x-x-4-x-x-2-x-x--4-4---2-2--------| 
D|-2-x-x-0-x-x-2-x-x-0-x-x--2-2---0-0--0h2p0-| 
A|-------------------------------------------| 
E|-------------------------------------------| 
play this twice for all verses 

chorus 

e|-----------------------------| 
B|-----------------------------| 
G|-9---11---12---12---12\11----| 
D|-9---11---12---12---12\11----| 
A|-7---9----10---10---10\9-----| 
E|-----------------------------| 
play this four times 

then finish with this 

e|-----------------| 
B|-----------------| 
G|-9-12-11--11--11-| 
D|-9-12-11--11--11-| 
A|-7-10-9---9---9--| 
E|-----------------| 
play this two times 

then play the verse and chorus again 

Solo
 
e|------------------------------------------------| 
B|-8---8---8---8-8---8-8---8-8---b10p10-b8p8-b7p7-| 
G|------------------------------------------------| 
D|------------------------------------------------| 
A|------------------------------------------------| 
E|------------------------------------------------| 

e|-----------------------------------------------10h12-15-15-14----| 
B|------------------------------------------8h10-------------------| 
G|-b9p9-b7p7------------------------7h9-7h9------------------------| 
D|-----------b9p9--------------------------------------------------| 
A|----------------b5p5-b5p5---3h5p3--------------------------------| 
E|-----------------------------------------------------------------| 

  $ $ $ $ $ $ $ (joke again, it souns pretty good) 
e|-15p14p12----15p14p12----15p14p12----15p14p12---15p14p12----15p14p12----| 
B|----------15----------15----------15---------15----------15----------15-| 
G|------------------------------------------------------------------------| 
D|------------------------------------------------------------------------| 
A|------------------------------------------------------------------------| 
E|------------------------------------------------------------------------| 

e|-15p14p12----15p14p12----14p13p11----14p13p11----14p13p11----14p13p11----| 
B|----------15----------15----------14----------14----------14----------14-| 
G|-------------------------------------------------------------------------| 
D|-------------------------------------------------------------------------| 
A|-------------------------------------------------------------------------| 
E|-------------------------------------------------------------------------| 

e|-14p13p11----14p13p11----14p13p11----14p13p11----12p11p9----12p11p9----| 
B|----------14----------14----------14----------14---------12---------12-| 
G|-----------------------------------------------------------------------| 
D|-----------------------------------------------------------------------| 
A|-----------------------------------------------------------------------| 
E|-----------------------------------------------------------------------| 

e|-12p11p9----12p11p9----12p11p9----12p11p9----12p11p9----12p11p9----| 
B|---------12---------12---------12---------12---------12---------12-| 
G|-------------------------------------------------------------------| 
D|-------------------------------------------------------------------| 
A|-------------------------------------------------------------------| 
E|-------------------------------------------------------------------| 

e|-8p7p5---8p7p5------10-9-7-----------------10---------| 
B|-------8-------8-----------10-9-7----------9----------| 
G|----------------------------------7--------7----------| 
D|------------------------------------------------------| 
A|------------------------------------------------------| 
E|------------------------------------------------------| 

	        

Written by Steve Plunkett

See Also: