E-Chords
Atreyu

Becoming The Bull(Tabs)

Atreyu

roll up this ad to continue

Key: C
p=palm mute 
ho=hammer on 
po=pull off 

D----------------------------------- 
------------------------------------ 
------------------------------------ 
------------------------------------x4 
--0-----------0ho2-4-0-5po3--------- 
C-0--0-0-1ho3---------------7po5---- 

D-------------- 
--------------- 
--------------- 
--------------- 
--0-0-0-0-0-3-- 
C-0-0-0-0-0-1-- 




D----------------------------------- 
------------------------------------ 
------------------------------------ 
------------------------------------x4 
--0-----------0ho2-4-0-5po3--------- 
C-0--0-0-1ho3---------------7po5---- 

D-------------- 
--------------- 
--------------- 
--------------- 
--0-0-0-0-0-3-- 
C-0-0-0-0-0-1-- 

Thats all i got rite now but its ok 
e-mail me at [email protected] for questions or requests 
share this page

See Also: