E-Chords
Antemasque

Drown All Your Witches(Tabs)

Antemasque


intro and verse 

e|---------------5-5-5--3-3-3------------------------------------------| 
B|-5-5-5--3-3-3--7-7-7--5-5-5------------------------------------------| 
G|-6-6-6--4-4-4--7-7-7--5-5-5------------------------------------------| 
D|-0-0-0--0-0-0--0-0-0--0-0-0------------------------------------------| 
A|-0-0-0--0-0-0--------------------------------------------------------| 
E|-5-5-5--3-3-3--------------------------------------------------------| 


Pre-Chorus pt.1 

e|-5-5-5-5-----------0-0-0-0------------------------------------------------| 
B|-0-0-0-0--5-5-5-5--0-0-0-0--5-5-5-5---------------------------------------| 
G|-5-5-5-5--0-0-0-0--1-1-1-1--0-0-0-0---------------------------------------| 
D|-0-0-0-0--5-5-5-5--2-2-2-2--5-5-5-5---------------------------------------| 
A|-5-5-5-5--0-0-0-0--2-2-2-2--0-0-0-0---------------------------------------| 
E|----------5-5-5-5--0-0-0-0--5-5-5-5---------------------------------------| 

Pre-Chorus pt.2 

e|-5-5-5-5-----------8--8--8--8--8---7~~~~------------------------| 
B|-0-0-0-0--5-5-5-5--10-10-10-10-10--9~~~~------------------------| 
G|-5-5-5-5--0-0-0-0--8--8--8--8--8---7~~~~------------------------| 
D|-0-0-0-0--5-5-5-5--10-10-10-10-10--9~~~~------------------------| 
A|-5-5-5-5--0-0-0-0--8--8--8--8--8---7~~~~------------------------| 
E|----------5-5-5-5-----------------------------------------------| 


Chorus 
e|----------------------------------0------------------------------------------| 
B|--5-5-5-5--3-3-3-3--1-1-1-1-----1---1----------------------------------------| 
G|--5-5-5-5--4-4-4-4--2-2-2-2---2----------------------------------------------| 
D|--7-7-7-7--5-5-5-5--3-3-3-3-3------------------------------------------------| 
A|--7-7-7-7--5-5-5-5--3-3-3-3--------------------------------------------------| 
E|-----------------------------------------------------------------------------| 

e|----------------------------------0------------------------------------------| 
B|--5-5-5-5--3-3-3-3--1-1-1-1-----1---1----------------------------------------| 
G|--5-5-5-5--4-4-4-4--2-2-2-2---2----------------------------------------------| 
D|--7-7-7-7--5-5-5-5--3-3-3-3-3------------------------------------------------| 
A|--7-7-7-7--5-5-5-5--3-3-3-3--------------------------------------------------| 
E|-----------------------------------------------------------------------------| 

e|----------------------------------0------------------------------------------| 
B|--5-5-5-5--3-3-3-3--1-1-1-1-----1---1----------------------------------------| 
G|--5-5-5-5--4-4-4-4--2-2-2-2---2----------------------------------------------| 
D|--7-7-7-7--5-5-5-5--3-3-3-3-3------------------------------------------------| 
A|--7-7-7-7--5-5-5-5--3-3-3-3--------------------------------------------------| 
E|-----------------------------------------------------------------------------| 


e|-----------------------------------------------------------------------------| 
B|--5-5-5-5--3-3-3-3--1~~~~----------------------------------------------------| 
G|--5-5-5-5--4-4-4-4--2~~~~----------------------------------------------------| 
D|--7-7-7-7--5-5-5-5--3~~~~----------------------------------------------------| 
A|--7-7-7-7--5-5-5-5--3~~~~----------------------------------------------------| 
E|-----------------------------------------------------------------------------| 

So that's about it. just listen to the song and repeat the parts when you need to. 

************************************ 

| /   slide up 
| \   slide down 
| h   hammer-on 
| p   pull-off 
| ~   vibrato 
| +   harmonic 
| x   Mute note 
| b   Bend 
| pb  Pre-bend 
| br  Bend release 
| pbr Pre-bend release 
| brb Bend release bend 

************************************ 

roll up this ad to continue

share this page

See Also: