E-Chords
Angeles del inferno

roll up this ad to continue

Angeles del infierno 
666 
por [email protected] 
 
 
INTRO 
1.------------------ 
2.------------------ 
3.------------------ 
4.-7--3-----5-5--5-5 
5.-5--1--3--3-3--3-3 xx2 
6.-------1---------- 
 
riff a 
1.---------------------------------------------------------- 
2.---------------------------------------------------------- 
3.---------------------------------------------------------- 
4.----------------------------------------------5-5-5--5-5-5 
5.-5-5-5-5-5-5-5-5--1-1-1---------3-3-3-3-3-3-3-3-3-3--3-3-3 
6.------------------------1-1-1-1--------------------------- 
 
riff b 
1.------------------------------------- 
2.------------------------------------- 
3.------------------------------------- 
4.-7-7-7-7--3-3-----5-5-5-5-5--5-5--5-5 
5.-5-5-5-5--1-1-3-3-3-3-3-3-3--3-3--3-3  xx2 
6.--------------1-1-------------------- 
 
riff c 
1.------------------------------------- 
2.------------------------------------- 
3.------------------------------------- 
4.-7---9-9-9-7--7-7-7-5--5-5-5--2- -2-2 
5.-5---7-7-7-5--5-5-5-3--3-3-3--0-x-0-0 
6.------------------------------------- 
 
riff d 
1.--------------------------------------------------------- 
2.--------------------------------------------------------- 
3.--------------------------------------------------------- 
4.-7--------------3---------5-----------------5- -5- -5-5-5 
5.-5--5-5-5-5-5-5-1-3-------3-3-3-3-3-3-3-3-3-3-x-3-x-3-3-3 xx2 
6.------------------1-1-1-1-------------------------------- 
 
*y luego tocas el riff d xx2 
*y luego el riff b xx2 
*tocas el riff d solo una ves y ese es el final... 
share this page

See Also: