E-Chords
Airbourne

No Way But The Hard Way(Tabs)

Airbourne

roll up this ad to continue

(intro) 

0:00 - 0:17 
E|-----------------------| 
B|-5----3-----3----------| 
G|-4-4--2-2---2-2----2---| x4 
D|-2-4--0-0---0-2----2---| 
A|---2----0-x---0----0---| 
E|----------------3b-----| 

(verse) 
0:17 - 0:34 
E|-----------------------| 
B|-5----3-----3----------| 
G|-4-4--2-2---2-2----2---| x4 
D|-2-4--0-0---0-2----2---| 
A|---2----0-x---0----0---| 
E|----------------3b-----| 

Bridge: 
0:34 - 0:42 
E|-3------------3-------------| 
B|-3--3---------3--3-------3--| 
G|-0--2--2------0--2-44444-2--| 
D|-0--0--2------0--0-44444-0--| 
A|-------0-----------22222----| 
E|-3------------3-------------| 

(Chorus) 
0:42 - 0:59 
E|---------------------------------------------------| 
B|-5----------3-------------5----3-------------------| 
G|-4-4--4-----2-2-----------44---2-2-----------------| 
D|-2-4--4-0---0-2--2-----2--24---0-2----2----2----2--| x2 
A|---2--2-0-----0--2-----2---2-----0----2----2----2--| 
E|-----------------0-3b--0-----------3b-0----0-3b-0--| 

(verse 2) 
0:59 - 1:16 
E|-----------------------| 
B|-5----3-----3----------| 
G|-4-4--2-2---2-2----2---| x4 
D|-2-4--0-0---0-2----2---| 
A|---2----0-x---0----0---| 
E|----------------3b-----| 

(bridge 2) 
1:16 - 1:23 
E|-3-----------------3-------------| 
B|-3--3--------------3--3-------3--| 
G|-0--2--2-----------0--2-44444-2--| 
D|-0--0--2--2----2---0--0-44444-0--| 
A|-------0--2----2--------22222----| 
E|-3--------0-3b-0---3-------------| 

(Chorus 2) 
1:24 - 1:40 
E|---------------------------------------------------| 
B|-5----------3-------------5----3-------------------| 
G|-4-4--4-----2-2-----------44---2-2-----------------| 
D|-2-4--4-0---0-2--2-----2--24---0-2----2----2----2--| x2 
A|---2--2-0-----0--2-----2---2-----0----2----2----2--| 
E|-----------------0-3b--0-----------3b-0----0-3b-0--| 

(solo lead) 1:40 - 2:22 
1:40 - 1:49 
E|---------------| 
B|--10b-10b-10b--| 
G|-12b-12b-12b-:| 
D|-------------:| 
A|---------------| 
E|---------------| 

1:40 - 1:57 
E|---------------| 
B|--12b-12b-12b--| 
G|-14b-14b-14b-:| 
D|-------------:| 
A|---------------| 
E|---------------| 

   1:57                      2:00             2:03 
E|-12-12-------------------------------------------| 
B|-------14h12---12b---------------------------12--| 
G|------------14-----12--------12------14-14b--12--| 
D|---------------------14---/14----14--------------| 
A|-------------------------------------------------| 
E|-------------------------------------------------| 

   2:03              2:05                          2:08 
E|-----------------------------------------------12-15-12--| 
B|-------------------12b---------14b--------12/15----------| 
G|-------------------12b---------14b-14-12-----------------| 
D|--14p12---------------14p12h14---------------------------| 
A|-------14p12---------------------------------------------| 
E|-------------12------------------------------------------| 

    2:10                                2:13 
E|---------------------------------------------------------| 
B|------------------------------3-----------12----14b--14--| 
G|------------------------------2-2---------12----14b--14--| 
D|------------------------------0-2----2-------------------| 
A|-2p0h2p0h2p0h2p0h2p0h2p0h2p0----0----2-------------------| 
E|----------------------------------3b-0-------------------| 

   2:16          2:17                            2:22 
E|--------------------------------12-12-12-12-12---------| 
B|-12--14b-14-14b-12------12---14-12-12-12-12-12--12b----| 
G|-12--14b-14-14b-12------12---14-----------------12b----| 
D|-------------------------------------------------------| 
A|-------------------------------------------------------| 
E|-------------------------------------------------------| 

(solo rhythm): 1:40 - 2:22 

1:40 - 1:49 
E|-----| 
B|---3-| 
G|-2-2-| x4 
D|-2-0-| 
A|-0---| 
E|-----| 

1:49 - 1:57 
E|-----| 
B|-----| 
G|-4---| x4 
D|-4-2-| 
A|-2-2-| 
E|---0-| 

(the rest of the rhythm played under the solo is the Chorus riff) 
1:57 - 2:13 
E|---------------------------------------------------| 
B|-5----------3-------------5----3-------------------| 
G|-4-4--4-----2-2-----------44---2-2-----------------| 
D|-2-4--4-0---0-2--2-----2--24---0-2----2----2----2--| x2 
A|---2--2-0-----0--2-----2---2-----0----2----2----2--| 
E|-----------------0-3b--0-----------3b-0----0-3b-0--| 

2:13 - 2:22 
E|-3-----------------3---------------| 
B|-3--3--------------3--3-------3----| 
G|-0--2--2-----------0--2-44444-2----| 
D|-0--0--2--2----2---0--0-44444-0-2--| 
A|-------0--2----2--------22222---2--| 
E|-3--------0-3b-0---3------------0--| 

(breakdown) 
2:22 - 2:59 
(the riff during the breakdown is the same as the main riff, but rearranged a bit) 
E|-----------------| 
B|-5---3----3------| 
G|-4-4-2----2-2----| x8 
D|-2-4-0----0-2-2--| 
A|---2--------0-2--| 
E|--------------0--| 

  2:55 
E|------------| 
B|-5----------| 
G|-4-4----2---| 
D|-2-4----2-2-| 
A|---2----0-2-| 
E|-----3b---0-| 

(the rest of the song is simply the main riff, repeated) 

E|---------------------------------------------------| 
B|-5----------3-------------5----3-------------------| 
G|-4-4--4-----2-2-----------44---2-2-----------------| 
D|-2-4--4-0---0-2--2-----2--24---0-2----2----2----2--| 
A|---2--2-0-----0--2-----2---2-----0----2----2----2--| 
E|-----------------0-3b--0-----------3b-0----0-3b-0--| 

| /  slide up 
| h  hammer-on 
| p  pull-off 
| x  Mute note 
share this page

See Also: