E-Chords
Airbourne

Live It Up(Tabs)

Airbourne

roll up this ad to continue

Key: E
Intro: 
sound good to you.   
4-4-5-5-||7-7-7-7-7-7-7-7-|7-7-7-7-4-4-5-5-|| 
5-5-5-5-||5-5-5-5-5-5-5-5-|5-5-5-5-5-5-5-5-||3X 
-------------------------------------------|| 
-------------------------------------------|| 
-------------------------------------------|| 
-------------------------------------------|| 

7-7-7-7-7-7-7-7-|7-7-7-7-7-7-7-7------------|               
5-5-5-5-5-5-5-5-|-------5-5-5-5-5-5-5-5-----| 
-------------------------------------------|| 
-------------------------------------------|| 
-------------------------------------------|| 
-------------------------------------------||     

10-10-10-10-10-10-10-10-|9-9-9-9-9-9-5-5----|       
7--7--7--7--7--7--7--7--|7-7-7-7-7-7-5-5----| 
-------------------------------------------|| 
-------------------------------------------|| 
-------------------------------------------|| 
-------------------------------------------|| 

7-7-7-7-7-7-5-5-|7-7-7-7-7-7-7-7------------| 
5-5-5-5-5-5-5-5-|5-5-5-5-5-5-5-5------------| 
-------------------------------------------|| 
-------------------------------------------|| 
-------------------------------------------|| 
-------------------------------------------|| 

10-10-10-10-10-10-10-10-|9-9-9-9-9-9-9-9-| 
7--7--7--7--7--7--7--7--|7-7-7-7-7-7-7-7-| 

13-13-13-13-13-13-13-13-|13-13-13-13-13-13-13-13\| 
9--9--9--9--9--9--9--9--|9--9--9--9--9--9--9--9-\| 
------------------------------------------------|| 
------------------------------------------------|| 
------------------------------------------------|| 
------------------------------------------------|| 

Play for rest of intro; strum E chord for last 4 bars! 
----------------|----------------||----------------|| 
3-3-3-3-3-3-5-3-|2-2-2-2-2-2-3-2-||0-0-0-0-0-0-0-0-||2x 
---------------------------------------------------|| 
---------------------------------------------------|| 
---------------------------------------------------|| 
---------------------------------------------------|| 


Guitar 2 for rest of intro (e,b,g strings) 
----------------|----------------|----------------|-| 
8---------------|7-----3---------|5---------------|-|4x 
7---------------|7-----2---------|4---------------|-| 
---------------------------------------------------|| 
---------------------------------------------------|| 
---------------------------------------------------|| 






Riff 1 (4x)/ Chorus (8x): E,D,A 
----------------| 
--------3-------| 
--------2---2---| 
2-------0---2---| 
2-----------0---| 
0-----0--------3| 

Verse (8x): D,A,E 
----------------| 
3---------------| 
2-------2-------| 
0-------2---2---| 
--------0---2---| 
------3-----0---| 

Bridge: E,G,D,A.   
----------------|3---------------| 
----------------|0---------------| 
----------------|0---------------| 
2---------------|0---------------| 
2---------------|2---------------| 
0---------------|3---------------| 

----------------|----------------| 
3---------------|---------3-3----| 
2---------------|2---------2-5---| 
0---------------|2---------------| 
----------------|0---------------| 
----------------|----------------| 

----------------|3---------------| 
----------------|0---------------| 
----------------|0---------------| 
2---------------|0---------------| 
2---------------|2---------------| 
0---------------|3---------------| 

----------------|----------------|----------------| 
3---------------|----------------|----------------| 
2---------------|2-----2-----2---|--2-------------| 
0---------------|2-----2-----2---|--2-------------| 
----------------|0-----0-----0---|--0-------------| 
----------------|----------------|----------------| 



Chorus 
Verse 
Bridge 
Chorus 
Interlude 
----------------|----------------| 
3----2----------|3----2----------| 
2----2-2---2----|2----2-2---2----| 
0----0-2---2----|0----0-2---2----| 
-------0---0----|-------0---0----| 
----------------|----------------| 

3----3----------|----------------| 
0----0-3---3----|----------------| 
0----0-2---2----|----------------| 
0----0-0---0---2|----------------| 
2----2---------2|----------------| 
3----3-------3-0|----------------| 

Chorus 
Solo (8 bars.  Rhythm plays chorus) 
Pause 4/4, 2/4 (1 bars) 
End:D,A,E 


 
share this page

See Also: