E-Chords
Airbourne

Hungry(Tabs)

Airbourne

roll up this ad to continue

Key: G
########## Intro ########## 

Rhythm and lead parts overlap, listen closely to get the timing right. 

Rhythm 
e|-0---0---0---0---0-----------0---0---0-----------0-----------0--------------| 
B|-0---0---0---0---0-----------0---0---0-----------0-----------0--------------| 
G|-1---2---4---2---1-----------1---2---4-----------2-----------1--------------| 
D|-2---3---5---3---2-----------2---3---5-----------3-----------2--------------| 
A|----------------------...-----------------...---------...-------------------| 
E|----------------------------------------------------------------------------| 
Lead 
e|----------------------------------------------------------------------------| 
B|----------------------------------------------------------------------------| 
G|----------------------------------------------------------------------------| 
D|-----3h5p3p0-2h3p2p0-2~-------3h5p3p0-5~-----5h7p5p0-3~-----3h5p3p0-2~------| 
A|-...---------------------...-------------...------------...-----------------| 
E|----------------------------------------------------------------------------| 

Intro ends with lead guitar playing: 

e|-----3-------| 
B|-----3-------| 
G|-2---0-------| 
D|-2---0---2---| 
A|-0-------2---| 
E|-----3---0---| 



########## Verse ########## 

e|-----------------------3---3-------------------------------------| 
B|-----------------------3---3-3-----------------------------------| 
G|-----------------------0---0-2-------------------------------2---| 
D|-0h2-------------0h2---0---0-0---0h2-------------0h2---------2---| 
A|-0h2-------------0h2-------------0h2-------------0h2---------0---| 
E|-----0-0-0-0-0-0-------3---3---------0-0-0-0-0-0-------3---3-----| 
       . . . . . .     .               . . . . . .     . 

e|-----------------------3---3---------------------------3-----3---| 
B|-----------------------3---3-3-------------------------3-----3---| 
G|-----------------------0---0-2-------------------------0-----0---| 
D|-0h2-------------0h2---0---0-0---0h2-------------0h2---0-----0---| 
A|-0h2-------------0h2-------------0h2-------------0h2-------------| 
E|-----0-0-0-0-0-0-------3---3---------0-0-3p0-0-0-------3---0-3---| 
       . . . . . .     .               . .     . .     . 

Sometimes the verse ends with a variation (listen to the song): 
- Last G chord replaced by an A chord (-022--) 
- The last two G chords replaced by only the G note on the low E string 



########## Chorus ########## 

e|-----------------------------------------------------------------| 
B|-------3-------------------------------3-------------------------| 
G|-------2-------------------------------2-------------------------| 
D|-------0---------2-2-2-2-5-0-4-0-------0---------2-2-2-2---------| 
A|-3p0-0-----0-3p0-0-0-0-0---------3p0-0-----0-3p0-0-0-0-0-3-0-5-0-| 
E|-----------------------------------------------------------------| 



########## Solo etc. ########## 

### Part 1 

Rhythm, 2x 
e|---------------------------------------------------------3-------| 
B|---------------------------------------------------------3---3---| 
G|-------2---2-----------------2---------2---2-------------0---2---| 
D|-------2---2-----------------2---------2---2-----2-------0---0---| 
A|-------0---0-----2-2-2-2-----0---------0---0-----2---------------| 
E|-3p0-0-------3p0-0-0-0-0-3-0-----3p0-0-------3p0-0-------3-------| 

Lead, tremolo picking 
e|-----------------------------------------------------------------| 
B|-5---7---8---10--8---7---5---3---5---8---7---5\3-3~~~------------| 
G|-----------------------------------------------------------------| 
D|-----------------------------------------------------------------| 
A|-----------------------------------------------------------------| 
E|-----------------------------------------------------------------| 
 | (same thing, 1 octave higher) 
e|-----------------------------------------------------------------| 
B|-17--19--20--22--20--19--17--15--17--20--19--17--22b24~~---------| 
G|-----------------------------------------------------------------| 
D|-----------------------------------------------------------------| 
A|-----------------------------------------------------------------| 
E|-----------------------------------------------------------------| 



### Part 2 

Rhythm 
e|---------------------------------------------------------3-------| 
B|-------3---3---------------------------3---3-------------3---3---| 
G|-------2---2---------------------------2---2-------------0---2---| 
D|-------0---0-----2-2-2-2---------------0---0-----2-2-2-2-0---0---| 
A|-3p0-0-------3p0-0-0-0-0-3-0-5-0-3p0-0-------3p0-0-0-0-0---------| 
E|---------------------------------------------------------3-------| 
Lead 
e|-----------------------------------------------------------------| 
B|-20b22~~-17-20p17-------------------5-8p5----------------7b------| 
G|-----------------19-19p17--17----7b9------7-7p5-5--------7b-5b---| 
D|-------------------------19--------------------7--------------7--| 
A|-----------------------------------------------------------------| 
E|-----------------------------------------------------------------| 


Rhythm 
e|-----------------------------------------------------------------| 
B|-----------------------------------------------------------------| 
G|-----------------------------------------------------------------| 
D|-----2-2-2-2-----2-2-2-2-2-2-2-2-----2-2-2-2-----2-2-2-2-2-2-2-2-| 
A|-3p0-0-0-0-0-3p0-0-0-0-0-0-0-0-0-3p0-0-0-0-0-3p0-0-0-0-0-0-0-0-0-| 
E|-----------------------------------------------------------------| 
Lead                                tremolo picking 
e|--------------------------------------------------17-20b22r20p17-| 
B|--------------------------------------13-15-17-20----------------| 
G|-----------------------------/14-12-14---------------------------| 
D|-------------------------10p7------------------------------------| 
A|-3-0-0-5-0-0-3-0-0-0-0-0-----------------------------------------| 
E|-----------------------------------------------------------------| 



### Part 3 

Rhythm, 3x 
e|-----------------------------------------------------------------| 
B|-3---------------------------------------------------------------| 
G|-2---------------5---------------------2-------------------------| 
D|-0---------------5---------------------2-------------------------| 
A|-----------------3---------------3p0---0-------------------------| 
E|-----------------------------------------------------------------| 
Lead 
e|-----------------------------------------------------------------| 
B|-20b22~~---------19b20~~--------r19p17-20b22~--------------------| 
G|-----------------------------------------------------------------| 
D|-----------------------------------------------------------------| 
A|-----------------------------------------------------------------| 
E|-----------------------------------------------------------------| 
 | 
e|-----------------------------------------------------------------| 
B|-----------------------------------------------------------------| 
G|-----------------------------------------------------------------| 
D|-12~-------------10~-------------10\7--7~~-----------------------| 
A|-----------------------------------------------------------------| 
E|-----------------------------------------------------------------| 
 | 
e|-----------------------------------------------------------------| 
B|-8-----7-----5---8-----7-----5-----------------------------------| 
G|---------------------------------5h6-----------------------------| 
D|-------------------------------------7-7~~-----------------------| 
A|-----------------------------------------------------------------| 
E|-----------------------------------------------------------------| 


Rhythm 
e|-----------------------------------------------------------------| 
B|-3---------------------------------------------------------------| 
G|-2---------------5---------------4-4---4-4---4-4---4-4---4---4---| 
D|-0---------------5---------------4-4---4-4---4-4---4-4---4---4---| 
A|-----------------3---------------2-2---2-2---2-2---2-2---2---2---| 
E|-----------------------------------------------------------------| 
Lead 
e|-----------------------------------------------------------------| 
B|-----------------------------------------------------------------| 
G|-----------------5~----b---------4-4---4-4---4-4---4-4---4---4---| 
D|-5~------------------------------4-4---4-4---4-4---4-4---4---4---| 
A|---------------------------------2-2---2-2---2-2---2-2---2---2---| 
E|-----------------------------------------------------------------| 



### Part 4 

Rhythm 
e|-----------------------------------------------------------------| 
B|-----------------------------3-----------------------------------| 
G|-----------------------------2-------------------------------2---| 
D|-0h2-------------0h2---------0---0h2-------------0h2---------2---| 
A|-0h2-------------0h2-------------0h2-------------0h2---------0---| 
E|-----0-0-0-0-0-0-------3---3---------0-0-0-0-0-0-------3---3-----| 
       . . . . . .     .               . . . . . .     . 
Lead 
e|---------------------------------12------------------------------| 
B|---------------------------------15b12~--------------------------| 
G|------------------------------------------------------\\\\\\\\---| 
D|------------------------------------------------------\\\\\\\\---| 
A|-----------------------------------------------------------------| 
E|-----------------------------------------------------------------| 


Rhythm 
e|-------------------------------------------------------3---3-----| 
B|-----------------------------3-------------------------3---3-----| 
G|-----------------------------2-------------------------0---0-2---| 
D|-0h2-------------0h2---------0---0h2-------------0h2---0---0-2---| 
A|-0h2-------------0h2-------------0h2-------------0h2---------0---| 
E|-----0-0-0-0-0-0-------3---3---------0-0-3p0-0-0-------3---3-----| 
       . . . . . .     .               . .     . .     . 
Lead 
e|-----------------------------------------------------------------| 
B|-----------------------------------------------------------------| 
G|-----------------------------------------------------------------| 
D|-----------------------------------------------------------------| 
A|----------------------\\\\\\\\-----------------------------------| 
E|-0--------------------\\\\\\\\---0---0---0---0---0---0---0---0---| 


Repeat verse and Chorus again ... 


########## Outro ########## 

Rhythm guitar repeats Chorus riff 
Lead 
e|---------------------------------------------17-20p17----------------------| 
B|-20b22~--17-20p17----------------------20b22~--------20-20p17--------------| 
G|-----------------19-17--19p17-17-17~-------------------------19-17h19-17---| 
D|---------------------------------------------------------------------------| 
A|---------------------------------------------------------------------------| 
E|---------------------------------------------------------------------------| 
 | 
e|-------------------------------------17-----17-----17-----17-----17-----17-| 
B|------20-----20-----20-----20-----20---20b22--20b22--20b22--20b22--20b22---| 
G|-19b21--19b21--19b21--19b21--19b21-----------------------------------------| 
D|---------------------------------------------------------------------------| 
A|---------------------------------------------------------------------------| 
E|---------------------------------------------------------------------------| 


Rhythm 
e|---------------------------------------------------------------------------| 
B|-------3-----------------3-----------------3-------------------------------| 
G|-------2-----------------2-----------------2--------------2----------------| 
D|-------0-----------------0-----------------0--------------2----------------| 
A|-3p0-3-0-----------3p0-3-0-----------3p0-3-0--------------0----------------| 
E|---------------------------------------------------------------------------| 
Lead 
e|-20p17-20-20b22~---20p17-20-20b22~---20p17-20-20b23~------17~--------------| 
B|---------------------------------------------------------------------------| 
G|---------------------------------------------------------------------------| 
D|---------------------------------------------------------------------------| 
A|---------------------------------------------------------------------------| 
E|---------------------------------------------------------------------------| 

The rest is just the rhythm guitar repeating the A chord, while the lead guitar 
plays some improvised stuff or something ... then both end with an A chord. 



************************************ 

| /   slide up 
| \   slide down 
| h   hammer-on 
| p   pull-off 
| ~   vibrato 
| +   harmonic 
| x   Mute note 
| b   Bend 
| pb  Pre-bend 
| br  Bend release 
| pbr Pre-bend release 
| brb Bend release bend 

************************************ 
share this page

See Also: