E-Chords
After Forever

The Key(Tabs)

After Forever

Key: E
Tuning: E 
 
 
 
  intro:  C  Ab G  F  C  Bb Ab  G  C  Ab G  F  Bb B 
  and the guitar comes... 
 
   Cm               G7                Dm                 A7          
 |-----------------------------------------1-------1---------0-------0----| 
 |-----4-------4--------3-------3--------3--3-3--3--3-3----2--2-2--2--2-2-| 
 |---5--5-5--5--5-5---4--4-4--4--3-3----2-2--2--2-2--2------0--0----0--0--| 
 |--5-5--5--5-5--5---3-3--3--3-3--4---0--------0----------2-------2-------| 
 |-3-------3---------------------------------------------0-------0--------| 
 |------------------3-------3---------------------------------------------| 
 
   C#m              Cm                Ab       Bb 
 |------------------------------------------------------| 
 |-----5-------5--------4-------4-----------------------| 
 |---6--6-6--6--6-6---5--5-5--5--5-5------5--------7----| 
 |--6-6--6--6-6--6---5-5--5--5-5--5-----6--6-6---8--8-8-| 
 |-4-------4--------3-------3----------6-6--6---8-8--8--| 
 |------------------------------------4--------6--------| 
 
  riff1 
 |----------------------------------------------------| 
 |----------------------------------------------------| 
 |-5----------5----------5----------------------------| 
 |-5--6-5--3--5--8-6--5--5--6-5--3--88888888-99999999-| 
 |-3--6-5--3--3--8-6--5--3--6-5--3--88888888-99999999-| 
 |----4-3--1-----6-4--3-----4-3--1--66666666-77777777-| 
 
  riff2 
 |-----------------------------------------------------------------------------------| 
 |-----------------------------------------------------------------------------------| 
 |-----------------------------------------------------------------------------------| 
 |-55-55--55-55--00-00--00-00--77-77--77-77--55-55--55-55--66666-66666--55-55--6---8-| 
 |-33-33--33-33--22-22--22-22--55-55--55-55--44-44--44-44--44444-44444--33-33--6---8-| 
 |-----------------------------------------------------------------------------4---6-| 
 
  main riff:  C5  B5 Ab5  F5  G5 
  play it 4 times 
  bridge:  C5 B5 G5 Ab5 
  main riff x2 
   
 |---------------------------------------------------------| 
 |---------------------------------------------------------| 
 |-------------------------------------------------5-------| 
 |---------------------------------5-6---6-5-6---6---6-5---| 
 |-----6-8-6---------5-6---6-5-6-------------------------6-| 
 |-8-----------8-6-8---------------------------------------| 
 
  fist ending             second ending      
 |----------------------|----------------| 
 |----------------------|----------------| 
 |---------------------.|----------------| 
 |---------------------.|----------------| 
 |-6-5-6---6-5----------|-5--------------| 
 |-------------8-6-8----|----------------| 
 
 
_______________________________________________________ 
Contribuição: Leny([email protected]) 

roll up this ad to continue

share this page

See Also: