E-Chords
After Forever

Monolith of Doubt(Tabs)

After Forever

Key: E
Tuning: E 
 
 
  riff 1                                                   x3 
 |----------------------------------------------------------| 
 |----------------------------------------------------------| 
 |.-7-7777-7-7-7777-7-7777-7-7--3-3333-3-3-3333-2-2222-2-2-.| 
 |.-7-7777-7-7-7777-7-7777-7-7--3-3333-3-3-3333-2-2222-2-2-.| 
 |--5-5555-5-5-5555-5-5555-5-5--1-1111-1-1-1111-0-0000-0-0--| 
 |----------------------------------------------------------| 
     ....     ....   ....        ....     ....   .... 
 
 
  riff 2       ()= gtr 2 
 
|------------------------------------------------------------------------------| 
|------------------------------------------------------------------------------| 
|---5------7-------------------------5------7----------------------------------| 
|---5------7--(---3---5---77--55-)---5------7--(---3---5---77--55-)---3------5-| 
|-3-3------5--(-5---5---5--------)---3------5--(-5---5---5--------)---3------5-| 
|---------------------------------------------------------------------1------3-| 
   .             .   .   .                        .   .   . 
 
  riff 1 x2 
  riff 2 x1 
  interlude 
 
  Floor: 'near the monolith of doubt...' 
 |----------------------------------------------------------------------| 
 |----------------------------------------------------------------------| 
 |------------------------------------------------x2---10---8---5-555-5-| 
 |-5-6-5--5-6-5---/------8------5------3------2-\------10---8---5-555-5-| 
 |----------------\-5555---5555---5555---5555---/------8----6---3-333-3-| 
 |----------------------------------------------------------------------| 
                    ....   ....   ....   ....                     ... 
 
  keybords      '...of a mirror...' 
 |-------------|-----------------------------------------------------| 
 |-------------|--------------------------------------------------x2-| 
 |-------------|-5--3--2--7--------------3------/-55555--55555-5-5-\-| 
 |-------------|-5--3--2--7--------------3--3-- |-55555--55555-5-5-|-| 
 |-------------|-3--1--0--5---5-5p7-7p8--1--3---\-33333--33333-3-3-/-| 
 |-------------|----------------------------1------------------------| 
                                                  .....  ..... . . 
 
  under violins              Floor: 'this monolith...' 
 
|--------------------------|---------------------------|----------------------------| 
|--------------------------|---------------------------|----------------------------| 
|.-2-222-222-222-...--2-2-.|.-------------------------.|------2-3----3-2---and play-| 
|.-2-222-222-222-...--2-2-.|.--5-555-555-555-...--5-5-.|-5----2-3----3-2---riff 1---| 
|--0-000-000-000-...--0-0--|---5-555-555-555-...--5-5--|-5----O-1----1-0------------| 
|--------------------------|---3-333-333-333-...--3-3--|-3--------------------------| 
    . ... ... ... ...  . .      . ... ... ... ...  . . 
 
  outro 
 |-------------------------------------| 
 |-------------------------------------| 
 |-77777-77777-7-7--77777-77777-7-7--7-| 
 |-77777-77777-7-7--77777-77777-7-7--7-| 
 |-55555-55555-5-5--55555-55555-5-5--5-| 
 |-------------------------------------| 
   ..... ..... . .  ..... ..... . . 
 
 
_______________________________________________________ 
Contribuição: Leny([email protected]) 

roll up this ad to continue

share this page

See Also: