E-Chords
A Lot Like Birds

Think Dirty Out Loud(Tabs)

A Lot Like Birds

roll up this ad to continue

Key: A
------------------------------------------------------------------------------- 
                 Think Dirty Out Loud - A Lot Like Birds 
------------------------------------------------------------------------------- 
Tabbed by: Collen Wiegand 
E-mail: [email protected] 

Guitar I 

  Part A  (Intro) 
e|--------------------------------------------------------|\ 
B|--------------------------------------------------------| \ 
G|--------------------------------------------------------|  Repeat 
D|--------------------------------------------------------|  x4 
A|---------------3-------3h5-5-------------3-------3h5-5--| / 
E|--3h5-5--0h3h5---5p3p0------3h5-5--0h3h5---5p3p0--------|/ 

e|---------------------| 
B|---------------------| 
G|---------------------| 
D|--------2p0----------| 
A|-----3p0---3p0-2-----| 
E|--5p0------------3-0-| 

Guitar II 

  Part A (After 2 Repeat of Guitar I) 
e|---------------------------------------------------------------------------|\ 
B|---------------------------------------------------------------------------| \ 
G|---------------------------------------------------------------------------|  Repeat 
D|---------------6-------6h7-7--------------6-------6h7-7--------------------|  x2 
A|--7h8-8--0h7h8---8p7p0-------7h8-8--0h7h8---8p7p0--------------------------| / 
E|---------------------------------------------------------------------------|/ 

Guitar I 

  Part B (Verse) 
e|-0---------0--------0---------0----0-0-0----------0--| 
B|-8---------4--------1---------4----4-5-8-0-0------4--| 
G|-9---------5--------2---------5----------5-4---------| 
D|-----------------------------------------------------| 
A|-----------------------------------------------------| 
E|-----------------------------------------------------| 

e|--8---------5---------3---------2----0-0-0-0-----0--0--0--0---| 
B|--0---------0---------0---------0----4-5-7-8----11-11-11-12\--| 
G|--------------------------------------------------------------| 
D|--------------------------------------------------------------| 
A|--------------------------------------------------------------| 
E|--------------------------------------------------------------| 

Guitar II 

  Part B r = Reast 
e|--r---7p0-0-2p0-----------------------------0--0-0--------------------------| 
B|----------------0-7p0-4h7p4p0---------4p0---5--4-4--------------------------| 
G|------------------------------5p0-4h5-----5---------------------------------| 
D|----------------------------------------------------------------------------| 
A|----------------------------------------------------------------------------| 
E|----------------------------------------------------------------------------| 

e|--r---5p0-0-2p0-------------------------------------------------------------| 
B|----------------5p0-1h4p1p0---------1p0---4---------------------------------| 
G|----------------------------2p1p0h2-----2-----------------------------------| 
D|----------------------------------------------------------------------------|  
A|----------------------------------------------------------------------------| 
E|----------------------------------------------------------------------------| 

e|--r---7p0-0-2p0-----------------------------0--0-0--------------------------| 
B|----------------0-7p0-4h7p4p0---------4p0---5--4-4--------------------------| 
G|------------------------------5p0-4h5-----5---------------------------------| 
D|----------------------------------------------------------------------------| 
A|----------------------------------------------------------------------------| 
E|----------------------------------------------------------------------------| 

e|--r---5p0-0-2p0-------------0-0-0----------0--------------------------------| 
B|----------------5p0-1h4p1p0-4-5-8-0-0------4--------------------------------| 
G|----------------------------------5-4---------------------------------------| 
D|----------------------------------------------------------------------------|  
A|----------------------------------------------------------------------------| 
E|----------------------------------------------------------------------------| 

e|--r---7p0-0-2p0-----------------------------0--0-0--------------------------| 
B|----------------0-7p0-4h7p4p0---------4p0---5--4-4--------------------------| 
G|------------------------------5p0-4h5-----5---------------------------------| 
D|----------------------------------------------------------------------------| 
A|----------------------------------------------------------------------------| 
E|----------------------------------------------------------------------------| 

e|--r---5p0-0-2p0-------------------------------------------------------------| 
B|----------------5p0-1h4p1p0---------1p0---4---------------------------------| 
G|----------------------------2p1p0h2-----2-----------------------------------| 
D|----------------------------------------------------------------------------|  
A|----------------------------------------------------------------------------| 
E|----------------------------------------------------------------------------| 

e|--r---7p0-0-2p0-----------------------------0--0-0--------------------------| 
B|----------------0-7p0-4h7p4p0---------4p0---5--4-4--------------------------| 
G|------------------------------5p0-4h5-----5---------------------------------| 
D|----------------------------------------------------------------------------| 
A|----------------------------------------------------------------------------| 
E|----------------------------------------------------------------------------| 

e|--r---5p0-0-2p0-------------0-0-0-0-----0--0--0--0--------------------------| 
B|----------------5p0-1h4p1p0-4-5-7-8-----11-11-11-12\------------------------| 
G|----------------------------------------------------------------------------| 
D|----------------------------------------------------------------------------|  
A|----------------------------------------------------------------------------| 
E|----------------------------------------------------------------------------| 

Guitar I 

  Part C  
e|-----------------------------------------------------|\ 
B|-----------------------------------------------------| \ 
G|--------------------11-11---12\--6/--12\--6/--12-12--|  Repeat 
D|--12\--7/--14\--8/-----------------------------------|  x2 
A|---------------------9--9---10\--4/--10\--4/--10-10--| / 
E|--10\--5/--12\--6/-----------------------------------|/ 

e|----------------------------------| 
B|----------------------------------| 
G|--15-15-------17-17-------19-19\--| 
D|--------15-15-------17-17---------| 
A|--13-13-------15-15-------17-17\--| 
E|--------13-13-------15-15---------| 

Guitar II 
  
  Part C (Harmony) 
e|---------------------------------------------------------------------------|\ 
B|---------------------------------------------------------------------------| \ 
G|-10\--6/--12\--7/--14-14-15\-11/--15\-11/--15------------------------------|  Repeat 
D|---------------------------------------------------------------------------|  2x 
A|--8\--4/--10\--5/--12-12-13\--9/--13\--9/--13------------------------------| / 
E|---------------------------------------------------------------------------|/ 

e|---------------------------------------------------------------------------| 
B|---------------------------------------------------------------------------| 
G|-11-11--------14-14--------15----15----------------------------------------| 
D|-------12-12--------13-13--------------------------------------------------| 
A|--9--9--------12-12--------13----13----------------------------------------| 
E|-------10-10--------11-11--------------------------------------------------| 

Guitar I & II 

  Part D  (Intro reprise) 
e|--------------------------------------------------------|\ 
B|--------------------------------------------------------| \ 
G|--------------------------------------------------------|  Repeat 
D|--------------------------------------------------------|  x2 
A|---------------3-------3h5-5-------------3-------3h5-5--| / 
E|--3h5-5--0h3h5---5p3p0------3h5-5--0h3h5---5p3p0--------|/ 
                      
e|----------------------| 
B|----------------------| 
G|----------------------| 
D|--------2p0-----------| 
A|-----3p0---3p0-2------| 
E|--5p0------------3-0--| 

Guitar I 

  Part E  
e|-------0---------------0--------------0--------------0-----| 
B|-----8---8-----------4---4----------1---1--------------12--|  
G|---8-------8-------3-------5------4-------4-------11-------|   
D|-9---------------5--------------4--------------10----------|   
A|-----------------------------------------------------------| 
E|-----------------------------------------------------------| 

e|-------0---------------0--------------0--------------------| 
B|-----8---8-----------4---4----------1---1------------------|  
G|---8-------8-------3-------5------4-------4----------------|   
D|-9---------------5--------------4--------------------------|   
A|-----------------------------------------------------------| 
E|-----------------------------------------------------------| 

e|--0-0-0-------0--0-0--0--0-0--0----------------------------| 
B|--4-5-7-0-0---4--4-4--4--4-4--4----------------------------| 
G|--------5-4p0----------------------------------------------| 
D|-----------------------------------------------------------| 
A|-----------------------------------------------------------| 
E|-----------------------------------------------------------| 

Guitar II 

  Part E  
e|--0--0---0----------------0-0-0-0--| 
B|--8--4---1----------------4-4-4-4--| 
G|--9--5---2----------------5-5-5-5--| 
D|-----------------------------------| 
A|-----------------------------------| 
E|-----------------------------------| 

                                                           
e|----11--11--11--11--11--11--11--11--11--11--11--11--11--11--11--11--| 
B|---8---8---8---8---8---8---8---8---8---8---8---8---8---8---8---8----| 
G|--9---9---9---9---9---9---9---9---9---9---9---9---9---9---9---9-----| 
D|--------------------------------------------------------------------| 
A|--------------------------------------------------------------------| 
E|--------------------------------------------------------------------| 

  
e|--0-0-0-------0--0-0--0--0-0--0----------------------------| 
B|--4-5-7-0-0---4--4-4--4--4-4--4----------------------------| 
G|--------5-4p0----------------------------------------------| 
D|-----------------------------------------------------------| 
A|-----------------------------------------------------------| 
E|-----------------------------------------------------------| 

Guitar I  

  Part F (Verse II) 
E|--8-----5-----3-----2---0-0-0-0-0-0-0-0--------| 
B|--0-----0-----0-----0---4-4-4-5-5-5-8-8-0-0----| 
G|----------------------------------------5-4p0--| 
D|-----------------------------------------------| 
A|-----------------------------------------------| 
E|-----------------------------------------------| 

Guitar II 

  Part F r = Rest 
e|--r---7p0-0-2p0-----------------------------0--0-0--------------------------| 
B|----------------0-7p0-4h7p4p0---------4p0---5--4-4--------------------------| 
G|------------------------------5p0-4h5-----5---------------------------------| 
D|----------------------------------------------------------------------------| 
A|----------------------------------------------------------------------------| 
E|----------------------------------------------------------------------------| 

e|--r---5p0-0-2p0-------------------------------------------------------------| 
B|----------------5p0-1h4p1p0---------1p0---4---------------------------------| 
G|----------------------------2p1p0h2-----2-----------------------------------| 
D|----------------------------------------------------------------------------|  
A|----------------------------------------------------------------------------| 
E|----------------------------------------------------------------------------| 

e|--r---7p0-0-2p0-----------------------------0--0-0--------------------------| 
B|----------------0-7p0-4h7p4p0---------4p0---5--4-4--------------------------| 
G|------------------------------5p0-4h5-----5---------------------------------| 
D|----------------------------------------------------------------------------| 
A|----------------------------------------------------------------------------| 
E|----------------------------------------------------------------------------| 

e|--r---5p0-0-2p0-------------0-0-0-0-0-0-0-0---------------------------------| 
B|----------------5p0-1h4p1p0-4-4-4-5-5-5-8-8-0-0-----------------------------| 
G|--------------------------------------------5-4p0---------------------------| 
D|----------------------------------------------------------------------------|  
A|----------------------------------------------------------------------------| 
E|----------------------------------------------------------------------------| 

Guitar I 

  Part G   
e|---------------------------------------------------------------------------| 
B|---------------------------------------------------------------------------| 
G|--4--4--4--4--4--4--4--4--9--9--9--9--9--9--9--9--11-11-11-11-11-11-11-11--| 
D|---------------------------------------------------------------------------| 
A|--2--2--2--2--2--2--2--2--7--7--7--7--7--7--7--7--9--9--9--9--9--9--9--9---| 
E|---------------------------------------------------------------------------| 

e|---------------------------------------------------------------------------| 
B|---------------------------------------------------------------------------| 
G|--11-11-11-11-11-11-11-11-5--5--5--5--5--5--5--5--16-16-16-16-16-16-16-16--| 
D|---------------------------------------------------------------------------| 
A|--9--9--9--9--9--9--9--9--3--3--3--3--3--3--3--3--14-14-14-14-14-14-14-14--| 
E|---------------------------------------------------------------------------| 

e|---------------------------------------------------------------------------| 
B|---------------------------------------------------------------------------| 
G|--11-11-11-11-11-11-11-11-11-11-11-11-11-11-11-11-12-12-12-12-12-12-12-12--| 
D|---------------------------------------------------------------------------| 
A|--9--9--9--9--9--9--9--9--9--9--9--9--9--9--9--9--10-10-10-10-10-10-10-10--| 
E|---------------------------------------------------------------------------| 

e|--------------------------------------------------------------------------| 
B|--------------------------------------------------------------------------| 
G|--9--9--9--9--9--9--9--9--11-11-11-11-11-11-11-11-11-11-11-11-11-11-11-11-| 
D|--------------------------------------------------------------------------| 
A|--7--7--7--7--7--7--7--7--9--9--9--9--9--9--9--9--9--9--9--9--9--9--9--9--| 
E|--------------------------------------------------------------------------| 

e|---------------------------------------------------------------------------| 
B|---------------------------------------------------------------------------| 
G|--17-17-17-17-17-17-17-17-14-14-14-14-14-14-14-14-20-20-20-20-20-20-20-20--| 
D|---------------------------------------------------------------------------| 
A|--15-15-15-15-15-15-15-15-12-12-12-12-12-12-12-12-18-18-18-18-18-18-18-18--| 
E|---------------------------------------------------------------------------| 

e|---------------------------| 
B|---------------------------| 
G|--20-20-20-20-20-20-20-20--| 
D|---------------------------| 
A|--18-18-18-18-18-18-18-18--| 
E|---------------------------| 

Guitar II 

  Part G 
e|-0-0-0-0-0-0-0-0-0-0-0-0-0-0-0-0-0-0-0-0-0-0-0-0-0-0-0-0-0-0-0-0-0---------| 
B|-8-8-8-8-8-8-8-8-8-8-8-8-8-8-8-8-4-4-4-4-4-4-4-4-4-4-4-4-4-4-4-4-4---------| 
G|-9-9-9-9-9-9-9-9-9-9-9-9-9-9-9-9-5-5-5-5-5-5-5-5-5-5-5-5-5-5-5-5-5---------| 
D|---------------------------------------------------------------------------| 
A|---------------------------------------------------------------------------| 
E|---------------------------------------------------------------------------| 

  cont'd 
e|-0-0-0-0-0-0-0-0-0-0-0-0-0-0-0-0-0--0--0--0--0--0--0--0--0--0--0--0--0--0--0--0--|\ 
B|-1-1-1-1-1-1-1-1-1-1-1-1-1-1-1-1-12-12-12-12-12-12-12-12-12-12-12-12-12-12-12-12-| \ 
G|-2-2-2-2-2-2-2-2-2-2-2-2-2-2-2-2-12-12-12-12-12-12-12-12-12-12-12-12-12-12-12-12-|  Repeat 
D|---------------------------------------------------------------------------------|  2x 
A|---------------------------------------------------------------------------------| / 
E|---------------------------------------------------------------------------------|/ 

Guitar I & II 

  Part H   
e|------------------------------------------------------------| 
B|---6--6--6--6---6--6--6--6---6--6--6--6---------------------| 
G|--10-10-10-10--10-10-10-10--10-10-10-10---------------------| 
D|------------------------------------------------------------| 
A|------------------------------------------4-4-4-4--4-4-4-4--| 
E|------------------------------------------5-5-5-5--5-5-5-5--| 
                                           |-P.M.------| 
      
e|----------------------------------------------------------------------| 
B|----------------------------------------------------------------------| 
G|--4---4---4-----------------------------------------------------------| 
D|--8---8---8-----------------------------------8--8--4--4--7--7--2--2--| 
A|----------------------------------------------------------------------| 
E|----5---5---5-5--4-4-4-4--5-4-3-4--3-3-3-3----5--5--1--1--4--4--1--1--| 
                  |-P.M.--------------------| 

Guitar I 

  Part H Cont'd  
e|-----------------------------------------------------------------------------| 
B|-----------------------------------------------------------------------------| 
G|-----------------------------------------------------------------------------| 
D|-------------5----------------------5/7--4--4--4---4h5--5--5--5--5--5--5--5--| 
A|--2--2----2-----2--2-2-2---2--2---2------------------------------------------| 
E|--------------------------------------------------------------------------| 
                     |-Palm  Mute----| 

e|--------------------------------------------------------------------| 
B|--------------------------------------------------------------------| 
G|--------------------------------------------------------------------| 
D|--2--2--2--2--2--2--2--2--4---4---4---4---4-----4--4--4---4---4--4--| 
A|--------------------------------------------------------------------| 
E|--------------------------------------------------------------------| 

Guitar II 

  Part H Cont'd  
e|---------------------------------------------------------------------------| 
B|---------------------------------------------------------------------------| 
G|---------------------------------------------------------------------------| 
D|-4--4----4/5-4-2-4-2-1--------1-2-1-----2-2-2-2-2-2-2-2-2-2-2-2-2-2-2-2----| 
A|--------------------------2-3----------------------------------------------| 
E|---------------------------------------------------------------------------| 

e|---------------------------------------------------------------------------| 
B|-4--4--4--4--4----4-4-4-4--4--4--------------------------------------------| 
G|-0--0--0--0--0----0-0-0-0--0--0--------------------------------------------| 
D|---------------------------------------------------------------------------| 
A|---------------------------------------------------------------------------| 
E|---------------------------------------------------------------------------| 

Guitar I 

  Part I   
e|---------------------------------------------|\      
B|---------------------------------------------| \ 
G|---------------------------------------------|  Repeat 
D|---------------------------------------------|  x 10 
A|---------------3--------------------3--------| / 
E|--3h5-5--0h3h5---5p3p0-3h5-5--0h3h5---5p3p0--|/ 
   |-P.M.------------------------------------> 

  ?like a pile of ants?? 
e|---------------------------------------------|\ 
B|---------------------------------------------| \ 
G|---------------------------------------------|  Repeat 
D|---------------3--------------------3--------|  x 2 
A|--3h5-5--0h3h5---5p3p0-3h5-5--0h3h5---5p3p0--| / 
E|---------------------------------------------|/ 
   |-P.M.------------------------------------> 

e|---------------------------------------------|\ 
B|---------------------------------------------| \ 
G|---------------------------------------------|  Repeat 
D|---------------------------------------------|  x 2 
A|---------------3--------------------3--------| / 
E|--3h5-5--0h3h5---5p3p0-3h5-5--0h3h5---5p3p0--|/ 
   |-P.M.------------------------------------> 

e|----------------------------| 
B|----------------------------| 
G|--9-9--9-9--9--7-X-7-X-7-7--| 
D|----------------------------| 
A|--7-7--7-7--7--5-X-5-X-5-5--| 
E|----------------------------| 
  
e|-------------------------------------------------------------------------| 
B|-------------------------------------------------------------------------| 
G|-------------------------------------------------------------------------| 
D|-------------------------------------------------------------------------| 
A|---------------3--------------------3---------------------3--------------| 
E|--3h5-5--0h3h5---5p3p0-3h5-5--0h3h5---5p3p0--3h5-5--0h3h5---5p3p0-3h5-5--| 
   |-P.M.----------------------------------------------------------------> 

e|-------------------------------------------------------------------------| 
B|-------------------------------------------------------------------------| 
G|-------------------------------------------------------------------------| 
D|-------------------------------------------------------------------------| 
A|---------------3--------------------3---------------------3--------------| 
E|--3h5-5--0h3h5---5p3p0-3h5-5--0h3h5---5p3p0--3h5-5--0h3h5---5p3p0-3h5-5--| 
   |-P.M.----------------------------------------------------------------> 

e|------------------------------------------------| 
B|------------------------------------------------| 
G|------------------------------------------------| 
D|------------------------------------------------| 
A|---------------3--------------------3-----------| 
E|--3h5-5--0h3h5---5p3p0-3h5-5--0h3h5---5p3p0--5--| 
   |-P.M.---------------------------------------| 

Guitar II 

  Part I Whammy pedal set to the 4th/5th setting 
e|----------------------------------------------------------------| 
B|----------------------------------------------------------------| 
G|-14--------12------------------14--------12---------------------| 
D|---------------------14----------------------------14-----------| 
A|----------------------------------------------------------------| 
E|----------------------------------------------------------------| 

e|----------------------------------------------------------------| 
B|----------------------------------------------------------------| 
G|-17--------19------------------2---------14--------12--------2--| 
D|---------------------14--------0-----------------------------0--| 
A|----------------------------------------------------------------| 
E|----------------------------------------------------------------| 

Guitar I 

  Part J    
e|-----------------------------------------------------|\ 
B|-----------------------------------------------------| \ 
G|--------------------11-11---12\--6/--12\--6/--12-12--|  Repeat 
D|--12\--7/--14\--8/-----------------------------------|  x2 
A|---------------------9--9---10\--4/--10\--4/--10-10--| / 
E|--10\--5/--12\--6/-----------------------------------|/ 

e|----------------------------------| 
B|----------------------------------| 
G|--15-15-------17-17-------19-19\--| 
D|--------15-15-------17-17---------| 
A|--13-13-------15-15-------17-17\--| 
E|--------13-13-------15-15---------| 

e|--------------------------------------------------------|\ 
B|--------------------------------------------------------| \ 
G|--------------------------------------------------------|  Repeat 
D|--------------------------------------------------------|  x2 
A|---------------3-------3h5-5-------------3-------3h5-5--| / 
E|--3h5-5--0h3h5---5p3p0------3h5-5--0h3h5---5p3p0--------|/ 

   
e|----------------------0----0--------0--| 
B|----------------------8----4--------1--| 
G|----------------------9----5--------2--| 
D|--------2p0----------------------------| 
A|-----3p0---3p0-2-----------------------| 
E|--5p0------------3-0-------------------| 

Guitar II 
   
  Part J 
e|-----------------------------------------------------|\ 
B|-----------------------------------------------------| \ 
G|--------------------11-11---12\--6/--12\--6/--12-12--|  Repeat 
D|--12\--7/--14\--8/-----------------------------------|  x2 
A|---------------------9--9---10\--4/--10\--4/--10-10--| / 
E|--10\--5/--12\--6/-----------------------------------|/ 

e|----------------------------------| 
B|----------------------------------| 
G|--15-15-------17-17-------19-19\--| 
D|--------15-15-------17-17---------| 
A|--13-13-------15-15-------17-17\--| 
E|--------13-13-------15-15---------| 

e|--------------------------------------------------------|\ 
B|--------------------------------------------------------| \ 
G|--------------------------------------------------------|  Repeat 
D|--------------------------------------------------------|  x2 
A|---------------3-------3h5-5-------------3-------3h5-5--| / 
E|--3h5-5--0h3h5---5p3p0------3h5-5--0h3h5---5p3p0--------|/ 

e|------------------------------------------| 
B|------------------------------------------| 
G|------------------------------------------| 
D|--------2p0-----------6----6--------6-----| 
A|-----3p0---3p0-2------5----5--------5-----| 
E|--5p0------------3-0--4----4--------4-----| 

************************************ 

| /   slide up 
| \   slide down 
| h   hammer-on 
| p   pull-off 
| ~   vibrato 
| +   harmonic 
| *   Pinch Harmonic 
| x   Mute note 
| p.m Palm Mute 
| b   Bend 
| pb  Pre-bend 
| br  Bend release 
| pbr Pre-bend release 
| brb Bend release bend 
| P.M.Palm Mute 

************************************ 
 
share this page

See Also: