Neverstore

For The Rest Of My Life(Keyboard chords)

Neverstore

Key: Bb

roll up this ad to continue

	        

Intro 

eb---------------------------------------------------------------| 
Bb---------------------------------------------------------------| 
Gb---------------------------------------------------------------| 
Db---------------------------------------------------------------| 
Ab--2---------2----------1---------1---------2---------2---------| 
Eb----4-4-4-4---4-4-4-4----3-3-3-3---3-3-3-3---4-4-4-4---4-4-4-4-| 

eb----------------------------------------------------------------------------------| 
Bb----------------------------------------------------------------------------------| 
Gb----------------------------------------------------------------------------------| 
Db----------------------------------------------------------------------------------| 
Ab--2---------2---------2---------2---------1---------1---------2---------2---------| 
Eb----4-4-4-4---4-4-4-4---4-4-4-4---4-4-4-4---3-3-3-3---3-3-3-3---4-4-4-4---4-4-4-4-| 

Verse 

eb--------------------------------------------------------------| 
Bb--------------------------------------------------------------| 
Gb--------------------------------------------------------------| 
Db--------------------------------------------------------------| 
Ab--2---------2---------2---------2---------2--------2----------| 
Eb----4-4-4-4---4-4-4-4---4-4-4-4---4-4-4-4--4-4-4-4---4-4-4-4--| 

eb--------------------------------------------------------------| 
Bb--------------------------------------------------------------| 
Gb--------------------------------------------------------------| 
Db--------------------------------------------------------------| 
Ab--1---------1---------1---------2---------2--------2----------| 
Eb----3-3-3-3---3-3-3-3---3-3-3-3---4-4-4-4--4-4-4-4---4-4-4-4--|X2 

Pre Chorus! 

eb--------------------------------------------------------------| 
Bb--0-0-0-0-0-0-0-0-0-0-0-0-0-0-0-0-----------------------------| 
Gb--3-3-3-3-4-4-4-4-6-6-6-6-8-8-8-8-----------------------------| 
Db--------------------------------------------------------------| 
Ab--------------------------------------------------------------| 
Eb--------------------------------------------------------------|X3 

eb--------------------------------------------------------------| 
Bb--0-0-0-0-0-0-0-0-0-0-0-0-0-0-0-0-----------------------------| 
Gb--3-3-3-3-4-4-4-4-6-6-6-6-6-6-6-6-----------------------------| 
Db--------------------------------------------------------------| 
Ab--------------------------------------------------------------| 
Eb--------------------------------------------------------------| 

Chorus 

eb--------------------------------------------------------------| 
Bb--------------------------------------------------------------| 
Gb--4----------9------------------------------------------------| 
Db--4x32-6-----9x16---------------------------------------------| 
Ab--2----6x16--7------------------------------------------------| 
Eb-------4------------------------------------------------------|X2 

After the 1st Chorus 

eb--------------------------------------------------------------| 
Bb--------------------------------------------------------------| 
Gb--------------------------------------------------------------| 
Db--------------------------------------------------------------| 
Ab--2---------2---------2---------2---------2--------2----------| 
Eb----4-4-4-4---4-4-4-4---4-4-4-4---4-4-4-4--4-4-4-4---4-4-4-4--| 

eb--------------------------------------------------------------| 
Bb--------------------------------------------------------------| 
Gb--------------------------------------------------------------| 
Db--------------------------------------------------------------| 
Ab--1---------1---------1---------2---------2--------2----------| 
Eb----3-3-3-3---3-3-3-3---3-3-3-3---4-4-4-4--4-4-4-4---0--------| 

Bridge 


eb--------------------------------------------------------------| 
Bb--------------9AH~--------------------------------------------| 
Gb-4~-----------------------------------------------------------| 
Db-6~-----------------------------------------------------------| 
Ab-6~-----------------------------------------------------------| 
Eb--------------------------------------------------------------| 

eb--------------------------------------------------------------| 
Bb--------------------------------------------------------------| 
Gb--------------------------------------------------------------| 
Db---6-6-6-6-6----6-6-6-6-6-------------------------------------| 
Ab---6-6-6-6-6----6-6-6-6-6-------------------------------------| 
Eb---4-4-4-4-4----4-4-4-4-4-------------------------------------| 

Solo (tremolo the stared notes!)Watch for the timing of the 15 on the Bb string! 
   *  *  *   *  * *   *  *  * 
eb---------------------------------------------------------------| 
Bb-13-15-16-13-15-13-16-18-20-11h13-11h13---11h13-11h13-11h13p13-| 
Gb---------------------------------------------------------------| 
Db---------------------------------------------------------------| 
Ab---------------------------------------------------------------| 
Eb---------------------------------------------------------------| 
    * 
eb--------------------------------------------------------------| 
Bb--13-13~------------------------------------------------------| 
Gb--------------------------------------------------------------| 
Db--------------------------------------------------------------| 
Ab--------------------------------------------------------------| 
Eb--------------------------------------------------------------| 

After Solo 

eb--------------------------------------------------------------| 
Bb--------------------------------------------------------------| 
Gb------4~-------4-------4--------3 ----------------------------| 
Db---------------------------2----------------------------------| 
Ab--6~------2--------6------------------------------------------| 
Eb--------------------------------------------------------------| 

eb--------------------------------------------------------------| 
Bb--------------------------------------------------------------| 
Gb--4----------9------------------------------------------------| 
Db--4x32-6-----9x16---------------------------------------------| 
Ab--2----6x16--7------------------------------------------------| 
Eb-------4------------------------------------------------------| 
                                                        pmpm 
eb--------------------------------------------------------------| 
Bb--------------------------------------------------------------| 
Gb--------------------------------------------------------------| 
Db----------------------------------------------------------2---| 
Ab-2---------2---------2--------x3--2---------2---------2-2-2---| 
Eb---4-4-4-4---4-4-4-4---4-4-4-4------4-4-4-4---4-4-4-4-0-0-0---| 

Outro! 

eb-------6---7-6---------6---7-6---------6---7-6---------6---7-6------| 
Bb-----7---7-----9-7---7---7-----9-7---7---7-----9-7---7---7----9-7---| 
Gb---8---------------8---------------7---------------7--------------8-| 
Db--------------------------------------------------------------------| 
Ab--------------------------------------------------------------------| 
Eb--------------------------------------------------------------------| 

| /   slide up 
| \   slide down 
| h   hammer-on 
| p   pull-off 
| ~   vibrato 
| +   harmonic 
| x   Mute note 
| b   Bend 
| pb  Pre-bend 
| br  Bend release 
| pbr Pre-bend release 
| brb Bend release bend
	        

See Also: