Benjamin Trillado

Table For Two(Keyboard chords)

Benjamin Trillado

roll up this ad to continue

	        


NTRO: 
E|----------------------------------------------------------------------------------------| 
B|-----5--------5-----------7--------7-----------5--------5-----------5--------5----------| 
G|--------0--------0-----------0--------0-----------0--------0-----------0--------0-------| 
D|----------------------------------------------------------------------------------------| 
A|--7--------7--------7--5--------5--------5--3--------3--------3--3--------3----------3--| 
E|----------------------------------------------------------------------------------------| 


VERSES/Chorus: 
E|-------------------------------------------------------------------------------| 
B|-----5--------5-----------7-----------5--------5-----------5--------5----------| 
G|--------0--------0-----------0-----------0--------0-----------0--------0-------| 
D|-------------------------------------------------------------------------------| 
A|--7--------7--------7--5--------5--3--------3--------3--3--------3--------3----| 
E|-------------------------------------------------------------------------------| 



BRIDGE (Plucked) 
E|-------------------------------------------------| 
B|--5--7--5----5--7--5----5--7--5----5--7--5--7----| 
G|--0--0--0----0--0--0----0--0--0----0--0--0--0----| 
D|-------------------------------------------------| 
A|--3--5--7----3--5--7----3--5--7----3--5--7--5----| 
E|-------------------------------------------------| 



ALTERNATE Chorus (Strummed) (optional) 
E|-------------| 
B|--5--7--5----| 
G|-------------| 
D|-------------| 
A|--7--5--3----| 
E|-------------|
	        

See Also: