E-Chords
Venus

Add Stars To The Sky(Chords)

Venus

roll up this ad to continue

Key: A
 



Intro (0:00) 
   Em 
e------------------| 
b------------------| 
g------------------| 
d------------------| 
a------------------| 
e--0--0--0--0---3--| 



Riff A (0:08)  

   Em        G 
e---------------| 
b---------------| 
g--0--0-0-0--4--| x8 
d--2--2-2-2--5--| 
a--2--2-2-2--5--| 
e--0--0-0-0--3--| 
Verse (0:22) Em We knew another side Em That's what we believed in. Em We spent so many nights Em Trying to reach it. Em We wanted feelings Em Strong as the first love. Em We wanted everything Em A That's why we got lost. Bridge (0:51)
   Em        G 
e---------------| 
b---------------| 
g--0--0-0-0--4--| 
d--2--2-2-2--5--| x4 
a--2--2-2-2--5--| 
e--0--0-0-0--3--| 
PreChorus (0:59) Em We wanted to be known Em And grow up fast. Em We wanted to find love Em A To forget the past. Chorus (1:15) Em Hey hey hey. A Add stars to the sky. Em Hey hey hey. A Add stars to the sky. Em A Add stars, add stars to the sky. Em A Add stars, add stars to the sky. Bridge (1:47)
   Em            C               Em            A 
e-------------|---------------|-------------|-------------| 
b-------------|---------------|-------------|-------------| 
g--12-12-9-9--|--12-12--------|--12-12-9-9--|--11-11-9-9--| 
d-------------|--------10-10--|-------------|-------------| 
a-------------|---------------|-------------|-------------| 
e-------------|---------------|-------------|-------------| 
            x4              x4            x4            x4 
Verse (2:00) Em So we jump the rails C Much too far Em And we fell and we failed A Watching the sky. Em And now we relearn A Cause we're back down Em Watching the sun burn A And water flow down.
Break (2:29) 

   Em        G 
e---------------| 
b---------------| 
g--0--0-0-0--4--| 
d--2--2-2-2--5--| x4 
a--2--2-2-2--5--| 
e--0--0-0-0--3--| 
PreChorus (2:37) Em And now we relearn. We recall Who we really were A And what we really want. Chorus (2:53) Em Hey hey hey. A Add stars to the sky. Em Hey hey hey. A Add stars to the sky. Em A Add stars, add stars to the sky. Em A Add stars, add stars to the sky. Outro (3:22) Em Hey hey hey. Em Hey hey hey. Em Hey hey hey. Em Hey hey hey.
share this page

See Also: