E-Chords
Ultramen

Tubarãozinho(Chords)

Ultramen

Key: A
--------------------------------------- 
ADMINS: 
o procurar para adicionar o arquivo em .doc está com problema!!! Tive de transcrever na tela de Fonte Fixa!!! 
Para visualizar corretamente a Tab é preciso copiar para o bloco de notas, pois foi onde cifrei originalmente. 
---------------------------------------- 

Tubarãozinho 
Ultramen 
Composição: Ultramen 

(2x) Intro & Riff: 
 
e|---------------------------------------------------------------------------------- 
B|---------------------------------------------------------------------------------- 
G|---------------------------------------------------------------------------------- 
D|---------------------------------------------------------------------------------- 
A|------7--------9~10--9--7--9--7----------------7--------5~6--5-----5-------------- 
E|-7~9-----7--5--------------------5--7--9--7~9-----7--5----------8-----8--5--7--9-- 
*:
 
e|------------------------------ 
B|------------------------------ 
G|------------------------------ 
D|------------------------------ 
A|------5--7--9--10---12-12-12-- 
E|-7~9-------------------------- 
Riff |É um bicão em qualquer passeata |Pega a bandeira e vai gritando com a massa |Seu pai bebeu, ele na brisa e no breu |E o gueto tão distante na porta bateu |E vai atrás, conhece toda nata |A Viviane é a sua namorada |De dia vai perdendo o bom tempo *De noite a razão se joga pro sereno A Não quero mais Nem posso ver E Não quero mais Brincar com você A E Eu desisto, eu desisto Refrão
Riff |E o troço pega a tal velocidade |Como tudo aquilo que te tira a vontade |Estagnado |Boiando num marzão |Cheio de piranha, de pirata e tubarão
Riff |Paga de boy |ele é humildade zero |Na Roma antiga deveria ser o Nero |Berço de ouro |nunca varreu um chão |Dinheiro não é problema |sempre é solução |Mamãe não vê onde seu tubarãozinho chora |Achou que filho de peixe grande não se afoga |Ainda dá tempo, assume teu papel no mundo *Não deixe que esse mar de lama inunde tudo A Não quero mais Nem posso ver E Não quero mais Brincar com você A E Eu desisto, eu desisto Riff 1 (2x)
|E o troço pega a tal velocidade |Como tudo aquilo que te tira a vontade |Estagnado |Boiando num marzão |*Cheio de piranha, de pirata e tubarão
|Tubarãozinho !!! |*Tubarão !!! Transcrição: Ricardo Benvenuti Valeu, galera, espero que curtam e concordem com minha cifra. Abraços a todos!

roll up this ad to continue

share this page

See Also: