E-Chords
Ulices Chaidez

Que Bonito Es Querer(Chords)

Ulices Chaidez

Key: Gm
e|----------------------------- 
B|--------3------------------- 
G|------------------------5--- 
D|--------------4------------- 
A|------------------------5--- 
E|-------------------------- 

requinto 

e|------------------------------------------------------------- 
B|------------------------------------------------------------- 
G|--5/7--7--7--5--3--2-0--3-2h3p2-0---3-2h3p2-0---0-0-0--0--0-- 
D|------------------------------------------------------------- 
A|------------------------------------------------------------- 
E|------------------------------------------------------------- 

e|--5--3-1--5-3-1--1/3----3---3--3--3-- 
B|--6--4-3--6-4-3--3/4--4---4----4--4-- 
G|------------------------------------- 
D|------------------------------------- 
A|------------------------------------- 
E|------------------------------------- 

5|--5-------6-5-6--5/6--5----5---5---- 
B|--6--6-6--8-6-8--6/8--6--6---6---6-- 
G|------------------------------------ 
D|------------------------------------ 
A|------------------------------------ 
E|------------------------------------ 

E|--5/10--10-10-10--10--10---10/14--|14~~~~~ 
B|--6/11--11-11-11--11--11---11/15--|15~~~~~ 
G|----------------------------------- 
D|----------------------------------- 
A|----------------------------------- 
E|----------------------------------- 

E|--------------------------------------------- 
B|--------------------------------------------- 
G|-------------------------------------- 
D|--10/12--12--12--10--8--7h8------------------ 
A|-----------------------------10-------------- 
E|---------------------------------8h10--8h10-- 
Intro: D7 Gm Cm F Bb D7 Gm F Hoy no es 14 Bb de febrero Dm Pero te quiero regalar E Las estrellas Cm que hay en el cielo Bb Tal vez te las F D7 pueda bajar Gm Y es que tu Dm Me elevas hasta el cielo amor Eb Con cada Cm palpitar Bb De tu dulce F D7 corazón Gm Y es que yo Dm No puedo ocultarlo amor Eb Me encantas y Cm es verdad D7 Y hoy vengo con la intención.. Gm De decirte te quiero Me gustas y quiero Cm Intentarlo contigo Una y otra vez F Y es que tú me fascinas Hay mira mi niña Bb No hay en el mundo D7 Ninguna mujer Gm Que se asemeje un poco A tus ojos divinos Cm Con esa sonrisa Me hace enloquecer F A tu belleza interna Tú forma perfecta Bb De decir te quiero D7 Me enchina la piel Gm Por eso me enamoré..
e|------------------------------------------------------------- 
B|------------------------------------------------------------- 
G|--5/7--7--7--5--3--2-0--3-2h3p2-0---3-2h3p2-0---0-0-0--0--0-- 
D|------------------------------------------------------------- 
A|------------------------------------------------------------- 
E|------------------------------------------------------------- 

e|--5--3-1--5-3-1--1/3----3---3--3--3-- 
B|--6--4-3--6-4-3--3/4--4---4----4--4-- 
G|------------------------------------- 
D|------------------------------------- 
A|------------------------------------- 
E|------------------------------------- 

5|--5-------6-5-6--5/6--5----5---5---- 
B|--6--6-6--8-6-8--6/8--6--6---6---6-- 
G|------------------------------------ 
D|------------------------------------ 
A|------------------------------------ 
E|------------------------------------ 

E|--5/10--10-10-10--10--10---10/14--|14~~~~~ 
B|--6/11--11-11-11--11--11---11/15--|15~~~~~ 
G|----------------------------------- 
D|----------------------------------- 
A|----------------------------------- 
E|----------------------------------- 

E|--------------------------------------------- 
B|--------------------------------------------- 
G|--------------------------------------------- 
D|--10/12--12--12--10--8--7h8------------------ 
A|-----------------------------10-------------- 
E|---------------------------------8h10--8h10-- 
Gm Y es que tu Dm Me elevas hasta el cielo amor Eb Con cada Cm palpitar Bb De tu dulce F D7 corazón Gm Y es que yo Dm No puedo ocultarlo amor Eb Me encantas Cm y es verdad D7 Y hoy vengo con la intención.. Gm De decirte te quiero Me gustas y quiero Cm Intentarlo contigo Una y otra vez F Y es que tú me fascinas Hay mira mi niña Bb No hay en el mundo D7 Ninguna mujer Gm Que se asemeje un poco A tus ojos divinos Cm Con esa sonrisa Me hace enloquecer F A tu belleza interna Tú forma perfecta Bb De decir te quiero D7 Me enchina la piel Porque yo.. Gm Eb De ti me enamoré D7 Que Bonito Gm Es Querer Eb D7 Gm espero les guste mucho quise hacer la tab de esta canción ya que es la primera canción que le dedique a una persona muy especial para mi y estoy perdida mente tan enamorado de ella espero les guste muchoo

roll up this ad to continue

share this page

See Also: