E-Chords
TWOAL

Animal(Chords)

TWOAL

roll up this ad to continue

Key: F#m
Intro: F#m - B9 - D9 - E 

F#m     B9     D9   E 
  UOOOH  UOOOH  UOOOOH 

F#m 
 Essa menina faz chantagem 
B9 
 se diz ser foda, coisa e tal, mas que bobagem 
D9 
 pois do meu lado passa mal, 
E 
não se contem e me chama de animal 

F#m B9 Eu vou eu vou, dizer como é que é D9 seus olhos estão brilhando, suas mãos estão suando E eu sei, você me quer F#m B9 eu vou eu vou, dizer como é que é B9 seus olhos estão brilhando, suas mãos estão suando E eu sei, você me quer
F#m B9 D9 E UOOOH UOOOH UOOOOH F#m Ela me zoa, ela me chama de otário B9 mas sou o moleque que ela quer do lado D9 E e sou quem te faz tão bem F#m Quando eu olho ela sorri pra mim B9 eu não sou bonito mas ela gosta assim D9 E e eu sou quem te faz tão bem F#m Dizem que ela é um anjo B9 essas pessoas não conseguem ver? D9 E essa garota tem um jeito louco de brincar com você
 
   E5 
E|-4-----------5-----------7-------------9---------------| 
B|---7-5-4-5-7---9-7-5-7-9---10-9-7-9-10---12-10-9-10-12-| 
G|-------------------------------------------------------| 
D|-------------------------------------------------------| 
A|-------------------------------------------------------| 
E|-------------------------------------------------------| 
 
  F#5            B5 
|-------12----|----------------------14-16-17-| 
|-12b14-------|-17b19-17b19-17b19-------------| 
|-------------|-------------------------------| 
|-------------|-------------------------------| 
|-------------|-------------------------------| 
|-------------|-------------------------------| 

  D5                           E5 
|-16b17rb16-14-16---17-16-17-|-19-17-16~~--21-21-| 
|----------------------------|-------------------| 
|----------------------------|-------------------| 
|----------------------------|-------------------| 
|----------------------------|-------------------| 
|----------------------------|-------------------| 


(Tremolo de palheta)............................... 

 F#5 
|-21-19-17----21-19-17----21-19-17----21-19-17----| 
|----------19----------19----------19----------19-| 
|-------------------------------------------------| 
|-------------------------------------------------| 
|-------------------------------------------------| 
|-------------------------------------------------| 

 B5                                                            D5 
|--------14--------------14----------------------------------|-----------------------| 
|-17b19-----17-14-17b19-----17-14----------------------------|-------17--------------| 
|---------------------------------16b18rb16-14----14~~-16-14-|-16b18----16b18rb16-14-| 
|----------------------------------------------16------------|-----------------------| 
|------------------------------------------------------------|-----------------------| 
|------------------------------------------------------------|-----------------------| 

 E5 
|-------------------------------16h17p16------| 
|----------------------------17---------17----| 
|-16--14h16p14-13---------16---------------16-| 
|----------------------18---------------------| 
|-------------------19------------------------| 
|---------------------------------------------| 

 F#5                         B5 
|---------19b21rb19--17~~--|--19b21rb19--17-----17/19~~--|-19b21rb19-16~~-| 
|--------------------------|----------------19-----------|----------------| 
|-16/19~~------------------|-----------------------------|----------------| 
|--------------------------|-----------------------------|----------------| 
|--------------------------|-----------------------------|----------------| 
|--------------------------|-----------------------------|----------------| 

 E5 
|-17-16-14-----------------------------------------------------| 
|----------17-15-14-17-15-14----------------17-----------------| 
|----------------------------16-14-13-16b18----16b18rb16-14-16-| 
|--------------------------------------------------------------| 
|--------------------------------------------------------------| 
|--------------------------------------------------------------| 

 F#5                    B5                D5 
|---------------------|-----------------|-------------| 
|---------------------|-----------------|-------------| 
|-14~~-16b18rb16-14~~-|-16b18rb16-14----|14/16--------| 
|---------------------|--------------16-|-------------| 
|---------------------|-----------------|-------------| 
|---------------------|-----------------|-------------| 

 E5                                                                         F#5 
|-------------------------------------------------------------------------|----------| 
|----------------------------------------------------------------17-19-21-|-21b22----| 
|----------------------------------------------16-18-19-16-18-19----------|----------| 
|----------------------------16-18-19-16-18-19----------------------------|----------| 
|----------16-17-19-16-17-19----------------------------------------------|----------| 
|-16-17-19----------------------------------------------------------------|----------|
share this page

See Also: