The Moondoggies

Night And Day(Chords)

The Moondoggies

Key: C

roll up this ad to continue

Capo on 4th fret
	        

 



Riff: (and similar variations throughout) 
                              C Chord 
e|--------0---3---0----------------| 
B|--1--3--------------3---1--------| 
G|---------------------------------|           X4 
D|---------------------------------| 
A|---------------------------------| 
E|---------------------------------| 

e|------------------5--5--1`--0----| 
B|--3---6-5-6-5--0---------------1-| 
G|---------------------------------|           X4 
D|---------------------------------| 
A|---------------------------------| 
E|---------------------------------| 
C This is the way my body sways F C When I'm thinkin' about you x2 Am Oh I've been thinkin' about you C Night and day, night and day x3 Am C Oh I ladididum C This is the way my body shakes F C When I'm lyin' beside you x2 Am Oh I've been lyin' beside you C All night long, all night long x3 Am C Oh I ladididum E I don't know what I want Am from you x3 E Oh I been wishin' I could leave you alone Am tonight x2 E Am I don't know what I want from you E Am I don't know what I want from Am7 D Dsus Oh I believe in something Am7 D Dsus better Am7 D Dsus And I believe that your Am7 D Dsus heart is like a butterfly C C/B* G* Am Em Well now I'm runnin' on down the track C C/B* G* Am And I ain't lookin' back C C/B* G* Am Em You say love's a dirty road C C/B* G* Am follow it and you'll get cold Am7 D Dsus Oh I believe in somethin' Am7 D Dsus Greater Am7 D Dsus And I believe that your Am7 D Dsus heart is like a butterfly C C/B* G* Am Em Well now I'm runnin' on down the track C C/B* G* Am And I ain't lookin' back C C/B* G* Am Em You say love's a dirty road C C/B* G* Am follow it and you'll get cold
Chords i wasnt sure what to call: 

     C/B*     G*    Dsus 
e|----0-------0-------0---| 
B|----1-------1-------3---| 
G|----0-------0-------2---| 
D|----0-------0-------0---| 
A|----2-------2-------0---| 
E|----0-------3-------0---|

See Also: