E-Chords
The Devil Wears Prada

Louder Than Thunder(Chords)

The Devil Wears Prada

roll up this ad to continue

Key: Cm
Intro: Cm  Ab  Bb  Fm 

Cm                                     Ab 
   What would it take for things to be quiet, 
Ab              Cm 
quiet like the snow. I know this isn't much 
    Ab              Bb 
but i know, i could, i could be better. 

                   Ab       Fm 
I don't think i deserve it. Selflessness. 
Cm               Bb 
Find Your way, into my heart. 
Ab                 Fm 
All stars could be brighter. 
Cm                   Ab    Bb 
All hearts could be warmer. 

Cm                                      Ab 
    What would it take for things to be quiet, 
Ab              Cm 
quiet like the snow. Are we meant to be empty handed? 
Ab                          Bb 
I know, i could, i could be better. 

                   Ab       Fm 
I don't think i deserve it. Selflessness. 
Cm               Bb 
Find Your way, into my heart. 
Ab                 Fm 
All stars could be brighter. 
Cm                   Ab    Bb 
All hearts could be warmer. 

Solo: Ab  Fm  Cm  Bb 

 
E|--------------------------------------|  
B|----8~--6~------8(b9)8~---------------|  
G|----------5~--------------5~--3-3 ~---|  
D|--------------------------------------|  
A|--------------------------------------|  
E|--------------------------------------|  
 
E|--------------------------------------------|  
B|----8~--6~------8(b9)8~---------------------|  
G|----------5~--------------5~--3-3 ~----3-3--| 
D|--------------------------------------------| 
A|--------------------------------------------| 
E|--------------------------------------------|
share this page

See Also: