E-Chords
Tersol

Estilo Bar(Chords)

Tersol

Key: A
 
Riff #1 
 
     A                               G 
e|---------------------------------------------------------| 
B|---------------------------------------------------------| 
G|---------------------------------------------------------|   4x 
D|---------------5---7-7---5-5---7---9-9---7-7-------------| 
A|---5-5---7-7-----------------------------------9---7-7---| 
E|---------------------------------------------------------|
A G É meu amigo, Melhor não há A G Se eu to sozinho, Eu corro para o bar C D Eu vou pro bar Beber C Bb A E dos problemas Irei esquecer C D É meu amigo, Melhor não há. C Bb A Se eu to sozinho Eu corro para o bar A Cervejinha Caipirinha A# Um papinho com os amigos A Caipirinha Cervejinha A# E as gatinhas paquerar A Um papinho com os amigos A# Cervejinha Caipirinha A Caipirinha Cervejinha A# Cervejinha Guaraná C D Eu vou pro bar, Beber C Bb A Esse é o meu estilo de viver C D E com os amigos Compartilhar... C Bb A Eu gosto de viver no estilo bar Riff #1
     A                               G 
e|---------------------------------------------------------| 
B|---------------------------------------------------------| 
G|---------------------------------------------------------|   4x 
D|---------------5---7-7---5-5---7---9-9---7-7-------------| 
A|---5-5---7-7-----------------------------------9---7-7---| 
E|---------------------------------------------------------|
A G É meu amigo, Melhor não há A G Se eu to sozinho, Eu corro para o bar C D Eu vou pro bar Beber C Bb A E dos problemas Irei esquecer C D É meu amigo, Melhor não há. C Bb A Se eu to sozinho Eu corro para o bar A Cervejinha Caipirinha A# Um papinho com os amigos A Caipirinha Cervejinha A# E as gatinhas paquerar A Um papinho com os amigos A# Cervejinha Caipirinha A Caipirinha Cervejinha A# Cervejinha Guaraná C D Eu vou pro bar, Beber C Bb A Esse é o meu estilo de viver C D E com os amigos Compartilhar... C Bb A Eu gosto de viver no estilo bar _______________________________________________________ Contribuição: Bruno Alves Barata([email protected])

roll up this ad to continue

share this page

See Also: