E-Chords
Tabernáculo Music

Secreto(Chords)

Tabernáculo Music

Key: G#m
Intro G#m  F#  B  F# 

    G#m 
A porta se fecha 
     F# 
Me prostro ao chão  
    B  
Ouço tua voz 
     F# 
No meu coração  
      G#m 
É tão lindo de ouvir  
       F# 
Me emociono 
        B 
É tão lindo sentir 
        F# 
Teu espírito em mim 

           E 
No meu secreto 
             B 
Eu vejo meu amor 
         G#m 
Posso te tocar 
        F#   
Posso me lembrar 
          E 
De que eu sou 
                 B 
De que tu és pra mim 
       G#m 
Meu amado Jesus 
         F# 
Não mereço estar 

Aqui 

Solo E  B  G#m  F# 

Tab - Solo 

Parte 1 de 2 
   E                   B 
E|-5/7-7-7-6-6--------5/7-7-7-6-6-----------| 
B|-------------9-9-9--------------9-9-9-----| 
G|------------------------------------------| 
D|------------------------------------------| 
A|------------------------------------------| 
E|------------------------------------------|
Parte 2 de 2 
    G#m                 F# 
E|-5/7-7-7-6-6--------5/6-6-6-7-9-9-9-9-9~--| 
B|-------------9-9-9------------------------| 
G|------------------------------------------| 
D|------------------------------------------| 
A|------------------------------------------| 
E|------------------------------------------|
E Deixa a Glória encher B Teu espirito fluir G#m Não quero nada além F# De te sentir aqui E B Muda tudo para caber a tua Glória G#m Minha recompensa é saber F# Que confias em mim

roll up this ad to continue

share this page

See Also: