E-Chords
Something For Kate

Stop(Chords)

Something For Kate

roll up this ad to continue

Key: Bm
(Tabbed by R.Walsh) 

* Mute strings percussively  

VERSE/INTRO/INTERLUDE CHORDS 
  
    Bm    Bm/F#   Bm/A   Em    Em/B     Em/D    F#7 
e|---2------2------2------7------7--------7-----------| 
b|---3------3------3------8------8--------8------7----| 
G|---4------4------4------9------9--------9------9----| 
D|---4------4------4------9------9--------x------8----| 
A|---2------2------0------7------7--------7------9----| 
E|----------2-------------0------7-------10-----------| 


Chorus CHORDS 
  
    Bm      F#    Bm/C#  Bm/D   Bm/F#  Em      G       A      E 
e|---2------2------2------2------2------0------3-------0------0-----| 
b|---3------2------3------3------3------0------3-------2------0-----| 
G|---4------3------x------x------4------0------0-------2------1-----| 
D|---4------4------4------4------4------2------0-------2------2-----| 
A|---2------4------4------5------2------2------2-------0------2-----| 
E|----------2--------------------2------0------3--------------0-----| 


BRIDGE/OUTRO CHORDS 
  
     D      Em     G      A     Bm/F#  Bm/A    Bm    F#m 
e|---2------0------3------0------2------2------2------2----| 
b|---3------0------3------2------3------3------3------2----| 
G|---2------0------0------2------4------4------4------2----| 
D|---0------2------0------2------4------4------4------4----| 
A|----------2------2------0------2------0------2------4----| 
E|----------0------3-------------2--------------------2----| 
Play the Bass note in the chords before strumming them Intro: Bm Bm/F# Bm/A x3 Bm VERSE * Em Em/B Em/D Em All that I have is all that you've given me. Em/B Em/D Bm Bm/F# Bm/A Bm Did you never worry that I'd come to depend on you? Bm/F# Bm/A Em Em/B Em/D Em I gave you all the love I had in me, F#7 Bm Bm/F# Bm/A Bm and now I find you lied and I can't believe it's true. * Em Em/B Em/D Em Wrapped in her arms I see you across the street, (I see you across the street) Em/B Em/D Bm Bm/F# Bm/A Bm and I can't help but wonder if she knows what's going on. Bm/F# Bm/A Em Em/B Em/D Em Oh, you talk of love but you don't know how it feels, F#7 Bm Bm/F# Bm/A When you realise that you're not the only one... Chorus Bm Bm/C# Bm/D Bm/F# Em F# Bm E Oooooooh, you'd better stop before you tear me all apart . G F# Bm Bm/C# Bm/D Bm/F# E You'd better stop before you go and break my heart! G A Bm Bm/F# Bm/A Bm Oooooh, you'd better stop... VERSE * Em Em/B Em/D Em Time after time I've tried to walk away, (I've tried to walk away) Em/B Em/D Bm Bm/F# Bm/A Bm But it's not that easy when your soul is torn in two. Bm/F# Bm/A Em Em/B Em/D Em So I just resign myself to it everyday, F#7 Bm Bm/F# Bm/A Now all I can do is to leave it up to you... Chorus Bm Bm/C# Bm/D Bm/F# Em F# Bm E Oooooooh, you'd better stop before you tear me all apart. G F# Bm Bm/C# Bm/D Bm/F# E You'd better stop before you go and break my heart! G A Oooooh, you'd better... BRIDGE Em D Stop, if you love me! G D Now's the time to be sorry ! Em F#m G A Bm Bm/F# Bm/A Bm I won't believe that you'd walk out on me, baby yeah! Ooh!
INTERLUDE 

ad lib solo 

e|-------------------------------------7--| 
b|-0----3--3/5--7--7--5--3--/--7--7-7--7--| 
G|----------------------------------------| 
D|----------------------------------------| 
A|----------------------------------------| 
E|----------------------------------------| 
* Em Em/B Em/D F#7 Bm Bm/F# Bm/A Chorus Bm Bm/C# Bm/D Bm/F# Em F# Bm E Oooooooh, you'd better stop before you tear me all apart . G F# Bm Bm/C# Bm/D Bm/F# E You'd better stop before you go and break my heart! OUTRO G A Em A Oooooh, you'd better stop... Baby stop! G A Em A Oooooh, you'd better stop... Baby stop! G A Em A Oooooh, you'd better stop... Baby stop! G A Em A Oooooh, you'd better stop... Baby stop! G A Em Oooooh, you'd better stop.
share this page

See Also: