E-Chords
Smellcindy

Old Dog(Chords)

Smellcindy

roll up this ad to continue

Key: G#
Intro: Solo 1 
       Solo 2 (2x) 

Solo 1 

 
  G# 
E|------------------------------------------| 
B|-6---------6------------------------------| 
G|---8---8-----8---8------------------------| 
D|-----6---------6--------------------------| 
A|-6-------6---------6----------------------| 
E|------------------------------------------| 
 


Solo 2 

 
  C# 
E|------------------------------------------| 
B|-4---------4------------------------------| 
G|---6---6-----6---6------------------------| 
D|-----4---------4--------------------------| 
A|-4-------4---------4----------------------| 
E|------------------------------------------| 
 
Solo 1 Solo 2 You need to know need to look Sniff the gap Eat rotten meat Walk to harden Under the rule of his master But their chance will arise And you acted like a good dog Disobeying and stabbing (2x) With its other face losing control And the ring of the soul apart by pain You discover the secret And now a good death will Away from all provisions of lies Passagem: C G D A (2x) C G D A The movement of your eyes you deliver C G D A The graduated rectilinear pain C G D A The road lay on his chest Dm Am Em Finish it, old obedient dog Dm A7 E Finish it, old obedient dog C Sniff the gap G Even if you have to die D A Just let it happen C G The desire to take his life shattered D A The way of the shortened time C G The gleam in his eye was exhausted D A And the house of pain you enters C You need to know G D You need to look
share this page

See Also: