Sloan

Somethings Wrong(Chords)

Sloan

Key: F#

roll up this ad to continue

	        Intro: F# A E F# 


Verse 
F# 
I got the feeling that there's something wrong 
      A             E 
But I can't put my finger on it 

F# 
This is a sense it won't last too long 
          A             E 
And now I can't feel my fingers 


F#                      
Did you have to anyway 
F#                       A         E 
Or could you save it for another day 
   F#                                           A E 
If I was you I'd want that feeling back for good 

F#                                              A E   
I got the feeling that there's something wrong 
F#                                              A E 
I got the feeling that there's something wrong 

Figure 1 

e|-0-0-0-0-0---0-0-0-5-5-----------------------------------| 
B|-5-4---------5-4---5-5--5-4------------------------------| 
G|-----2-----------2----------2----------------------------| 
D|-------4-4--------------------4-2--2h4-4--2h4-4--2-4-----| 
A|---------------------------------------------------------| 
E|---------------------------------------------------------| 

e|-0-0-0-0-0---0-0-0-5-5-----------------------------------| 
B|-5-4---------5-4---5-5--5-4------------------------------| 
G|-----2-----------2----------2----2-4-4-4b5-5-r4-2-4------| 
D|-------4-4---------------------4-------------------------| 
A|---------------------------------------------------------| 
E|---------------------------------------------------------| 

Figure 2 

e|-----------------------| 
B|-----------------------| 
G|---2-4-4b5-4b5r4-2-4-2-| 
D|-4---------------------| 
A|-----------------------| 
E|-----------------------| 

See Also: