E-Chords
Slank

Lembah Baliem(Chords)

Slank

roll up this ad to continue

Key: G

verse 1 
e|---------------------------------------------------------------------------| 
B|--------------------3--3-------------------3--3----------------------------| 
G|------0------0------0--0-----7------0------0--0----------------------------| 
D|--0h4---4------4---------------9------0------------------------------------| 
A|----------2------3--------/7-----/5----------------------------------------| 
E|----------------------------------------3----------------------------------| 

e|----------------------------------------------(12)-------------------------| 
B|--------------------3--3--------------------------(12)---(12)--------------| 
G|------0------0------0--0-----7------0-----------------------(12)-----------| 
D|--0h4---4------4---------------9------0------------------------------------| 
A|----------2------3--------/7-----/5-------/10----------9-------------------| 
E|---------------------------------------------------------------------------| 

e|----(5)---------------(12)----------------(5)------------------------------| 
B|------(5)---(5)----------(12)---(12)--------(5)---(5)----------------------| 
G|--------------(5)------------------(12)-------------(5)--------------------| 
D|---------------------------------------------------------------------------| 
A|--7-------3-------/10---------9---------7-------3--------------------------| 
E|---------------------------------------------------------------------------| 

verse 2  
e|---------------------------------------------------------------------------| 
B|--11-11-11-11-11-11--9-9-9-9-9-9--11-11-11-11-11-11------------------------| 
G|----------------------------------------------------11-11-11-11-11-11------| 
D|---------------------------------------------------------------------------| 
A|---------------------------------------------------------------------------| 
E|---------------------------------------------------------------------------| 

e|---------------------------------------------------------------------------| 
B|-----------------9-9----------------9-9-9-9-9-9----------------------------| 
G|--11-11-11-11-11-----11-11-11-11-11-------------11-11-11-11-11-11----------| 
D|---------------------------------------------------------------------------| 
A|---------------------------------------------------------------------------| 
E|---------------------------------------------------------------------------| 

e|-----------------9-9-9-9-9-9-----------------------------------------------| 
B|--11-11-11-11-11-------------11-11-11-11-11-9-9-9-9-9-11-11-11-11----------| 
G|---------------------------------------------------------------------------| 
D|---------------------------------------------------------------------------| 
A|---------------------------------------------------------------------------| 
E|---------------------------------------------------------------------------| 

e|---------------------------------------------------------------------------| 
B|-----------------9h11p9-----------------9-9-9-9-9--------------------------| 
G|--11-11-11-11-11--------11--11-11-11-11-----------11-11-11-11-11-11--------| 
D|---------------------------------------------------------------------------| 
A|---------------------------------------------------------------------------| 
E|---------------------------------------------------------------------------| 

Fig3 
e|-----11---------11---------11---------11---------11---------11-------------| 
B|--11----11---11----11---11----11---11----11---12----12---12----12----------| 
G|---------------------------------------------------------------------------| 
D|---------------------------------------------------------------------------| 
A|---------------------------------------------------------------------------| 
E|---------------------------------------------------------------------------| 

e|-----11---------11---------11---------11---------11---------11-----11------| 
B|--12----12---12----12---11----11---11----11---11----11---11----11--12------| 
G|-------------------------------------------------------------------11------| 
D|---------------------------------------------------------------------------| 
A|---------------------------------------------------------------------------| 
E|---------------------------------------------------------------------------| 

Fig4 
e|--15-15-15--12-------12--15-12-----------12h15p12---7h10p7---3h5p3---------| 
B|---------------15-15-------------------------------------------------------| 
G|---------------------------------------------------------------------------| 
D|---------------------------------------------------------------------------| 
A|---------------------------------------------------------------------------| 
E|---------------------------------------------------------------------------| 

e|---------------------------------------------------------------------------| 
B|--8-10-12-10-8---7-----10p8------------8-----10p8--------------------------| 
G|---------------9------------9-12p9-7h9------------9p7-9p7------------------| 
D|----------------------------------------------------------9p7-5------------| 
A|---------------------------------------------------------------------------| 
E|---------------------------------------------------------------------------| 
verse 1 Bm C Em D G Bm C Em D G F#m Em C G F#m Em C verse 2: G C Aku gak perlu uang ribuan G C Yang aku mau uang merah cepe'an G C Aku gak butuh kedudukan G C Yang penting masih ada lahan tuk makan verse 3: Em C Asal ada babi untuk di panggang Em C Asal banyak ubi untuk ku makan G C G C Aku cukup senang,., aku cukup senang G Dan akupun tenang G F#m Em C (2x) G C Aku gak ngerti ada banyak tambang G C Yang aku tahu banyak hutan yang hilang G C Aku gak peduli banyak nada sumbang G C Kita orang ini dianggap terbelakang Em C Asal ada babi untuk di panggang Em C Asal banyak ubi untuk ku makan verse 4 G C G C Aku cukup senang,., aku cukup senang G C Dan akupun tenang G C G C Hei,., yamko rambe yamko,., aronawa,., ombe G C G C Hei,., yamko rambe yamko,.,aronawa,., ombe G Hei ngino kibe kumbano kumbu beko Yumano kumbu awe ade G F#m Em C
share this page

See Also: