E-Chords
Seguimos Perdiendo

Tarde(Chords)

Seguimos Perdiendo

roll up this ad to continue

Key: B

Intro: B D# E G# C#m F# 

B                        E      F# 
Hoy desperté ya estabas vestida 

B                           E          F# 
Yo seguía borracho y me costó despedirme de ti 

G#                    G#-G-F# 
Era solo otra historia 

F#                            B      F#     E 
Pensé que siempre estarías aquí? huo no huo no 

D#                        E    E-D#-C#m-B 
Y  la vida te dijo No va a amar 

B                            F# 
Te diste cuenta no soy esencial 

G#                 C#m 
Como amores de una noche 

E                   F# 
Tú si pudiste olvidar. 

Solo: 
e|---------------------------------------------------------|-----| 
B|---5---------------------------4~-5-4~-5-4~-4-5-4--------|-----| 
G|-----3--4~-3-4~-6-4~-4-4-3-4-6--------------------6-3-4~-|-444-| 
D|--4------------------------------------------------------|-444-| 
A|---------------------------------------------------------|-222-| 
E|---------------------------------------------------------|-----| 
B E F# Nunca más desperté contigo dormida B E F# He seguido borracho con el sol que no brilla por mí G# G#-G-F# No sabes cuánto he pasado F# B F# E Desde que estuvimos juntos los dos huo no huo no D# E E-D#-C#m-B Y si perdí el amor de mi vida B F# Era porque yo estaba mal G# C#m Y ahora que te necesito E F# Es tarde y con otro estas B F# E F# huo oo oo o ahora es tarde y con otro estas (x4).
         huoo oo oo...       huoo oo oo.... 
e|--------------------------------------------------| 
B|---5---------------------------4~-5-4~-5-4~-4-5-4-| 
G|-----3--4~-3-4~-6-4~-4-4-3-4-6--------------------| 
D|--4-----------------------------------------------| 
A|--------------------------------------------------| 
E|--------------------------------------------------| 
         huoo oo oo...       huoo oo oo 
e|---------------------------------------------------------| 
B|---5---------------------------4~-5-4~-5-4~-4-5-4--------| 
G|-----3--4~-3-4~-6-4~-4-4-3-4-6--------------------6-3-4~-| 
D|--4------------------------------------------------------| 
A|---------------------------------------------------------| 
E|---------------------------------------------------------|
share this page

See Also: