SE7EALEM

Procrastination(Chords)

SE7EALEM

Key: Am

roll up this ad to continue

	        
Riff Principal 

e|------------------------------------------| 
B|------------------------------------------| 
G|------------------------------------------| 
D|-2--2-2-2-2-2-4-2-2-2-2-------------------| 
A|-0--0-0-3-0-0-2-0-0-0-0-2-2-2-2-----------| 
E|------------------------0-0-3-0-----------| 

e|------------------------------------------| 
B|------------------------------------------| 
G|------------------------------------------| 
D|-2--2-2-2-2-2-4---------------------------| 
A|-0--0-0-3-0-0-2---------------------------| 
E|------------------------------------------|
Am Am The days go by and I keep locked in my room Am Am Bm C This is not the best for me Am Am And all attempts to do something productive Am Bm C End up being in vain Am Am I sit on my bed and start writing a song Am Bm C But soon I give up Am Am After ten minutes I try again Am Bm C At least I'm insistent Am C Bm Am Go Go Go I'm looking for C Bm Am The days I Lost Am C Bm Am And I'm being suffocated C Bm Am By procrastination
Riff Principal 

e|------------------------------------------| 
B|------------------------------------------| 
G|------------------------------------------| 
D|-2--2-2-2-2-2-4-2-2-2-2-------------------| 
A|-0--0-0-3-0-0-2-0-0-0-0-2-2-2-2-----------| 
E|------------------------0-0-3-0-----------| 

e|------------------------------------------| 
B|------------------------------------------| 
G|------------------------------------------| 
D|-2--2-2-2-2-2-4---------------------------| 
A|-0--0-0-3-0-0-2---------------------------| 
E|------------------------------------------| 

See Also: