Rotor

Meu Controle Ausente(Chords)

Rotor

Key: G

roll up this ad to continue

	        
Tab - Intro 

E|------------------------------------------------------------| 
B|--12-12-12--12-12-12-12-12------12-12-12--12-12-12-12-12----| 
G|--14-14-14--12-12-12-12-12------14-14-14--12-12-12-12-12----| 
D|--12-12-12--12-12-12-12-12------12-12-12--12-12-12-12-12----| 
A|------------------------------------------------------------| 
E|------------------------------------------------------------|
E|------------------------------------------------------------| 
B|--13-13-13--13-13-13-13-13------13-13-13--13-12-12-12-12----| 
G|--14-14-14--12-12-12-12-12------14-14-14--12-12-12-12-12----| 
D|--12-12-12--12-12-12-12-12------12-12-12--12-12-12-12-12----| 
A|------------------------------------------------------------| 
E|------------------------------------------------------------|

Verse 1:

G Meu controle ausente E ela ali presente Am D Desviando o olhar G Mira no invasor Provando os mesmos beijos Am D Que eu pensava dominar G De dia odiada A noite desejada Am D Condições pra me testar G Enterro a obsessão Com minha razão Am D Visto a sacanagem pra achar
G C Outro eu, como eu G C Outro eu, como eu (G D) (mudança pra o D rápida) 2 vezes Na na na G Vícios combinados Defeitos disfarçados Am D Eu começo a questionar G A perversão que prende Veneração que rende Am D Tão difíceis de escapar G Rotina abandonada Pecados na escada Am D Bocas pra experimentar G Corpos em fusão O gozo é a salvação Am D Desço até o inferno buscar
G C Outro eu, como eu G C Outro eu, como eu (G D) Na na na Intro 2 vezes (G D) Na na na

Written by Gui Mucare, Bruno Brau

See Also: