Realternativo

Coração Solitário(Chords)

Realternativo

Key: F

roll up this ad to continue

	        Intro F  Bb  C  
        F  Bb  C 

Solo 

E|---------------------------------------------------------| 
B|---------------------------------------------------------| 
G|-------5-5-------10-10---------12b14r12~-12-10\----------| 
D|--/3-3------/8-8--------/10-10---------------------------| 
A|---------------------------------------------------------| 
E|---------------------------------------------------------|
E|---------------------------------------------------------| 
B|---------------------------------------------------------| 
G|-------5-5-------10-10---------12-10----10~~-------------| 
D|--/3-3------/8-8--------/10-10-------12------------------| 
A|---------------------------------------------------------| 
E|---------------------------------------------------------|
( Dm F C ) ( Bb Bb7 C7 )
E|------5/--------8------------------------------1-----1---| 
B|----6--------10---------8--8h10--8\6--6----1h3---1h3-----| 
G|--7-------10----------9---------------7----3-----3-------| 
D|-------------------10------------------------------------| 
A|---------------------------------------------------------| 
E|---------------------------------------------------------|
E|------1-----1--1/3------6p5-3----------------------------| 
B|--1h3---1h3----3/5------------6-5-3----------------------| 
G|--1-----1------1/3------------------5-3\2----------------| 
D|-----------------------------------------3---------------| 
A|---------------------------------------------------------| 
E|---------------------------------------------------------|

Verse 1:

F Bb C O andar comum e uma voz cansada F Bb C Sem muito o que esperar Dm F C E eu me identifico porque nós Bb Bb7 C7 Temos corações solitários
Riff 1
E|---------------------------------------------------------| 
B|--5/6/8/10-----10\--6------------------------------------| 
G|---------------------------------------------------------| 
D|--5/6/8/10--10-\----7------------------------------------| 
A|---------------------------------------------------------| 
E|---------------------------------------------------------|
F Bb C Co-ra-ção (há mais de um milhão) F Bb C So-li-dão (em minha paixão) Dm F C Bb Bb7 C7 E vi-ver numa escuridãâ??--ão é sofrer
Riff 1

Verse 2:

F C Bb F Se você tem me-do F C Bb C Pode acredita-a-ar F C Bb F Que nem por um mome-e-ento Gm Am Bb Bbm Eu deixei de te a-colher
F Bb C Co-ra-ção (há mais de um milhão) F Bb C So-li-dão (em minha paixão) Dm F C Bb Bb7 C7 F E vi-ver numa escuridãâ??--ão é sofrer

See Also: