E-Chords
Picture This

Let's Be Young(Chords)

Picture This

roll up this ad to continue

Key: E
Intro  C#m  B  E  A 

E|----------------------------------------------| 
B|----------------------------------------------| 
G|----14----13-----------------14--13---16------| 
D|-----------------14----9-------------------14-| 
A|----------------------------------------------| 
E|----------------------------------------------| 
C#m B E A Oh It's easy to be free C#m B E A If you really wanna be C#m B E A So lets go out and make some noise C#m B E Go get the girls, and I'll get the boys A C#m B We don't care about what they sing A C#m B 'Cause we don't believe in anything E B C#m Lets go out, and leave our phones, at home A We can be young tonight E B C#m Lets break out, and leave our phones, at home A We can get drunk tonight ( C#m B E A )
E|----------------------------------------------| 
B|----------------------------------------------| 
G|----14----13-----------------14--13---16------| 
D|-----------------14----9-------------------14-| 
A|----------------------------------------------| 
E|----------------------------------------------| 
C#m B E A We ain't got no place to go C#m B E A So let's put on our own show C#m B E A We are an army, we're a team C#m B E Of misspent youth and forgotten dreams A C#m B We don't care about what they sing A C#m B 'Cause we don't believe in anything E B C#m Lets go out, and leave our phones, at home A We can be young tonight E B C#m Lets break out, and leave our phones, at home A We can get drunk tonight ( A C#m ) B A C#m We can get drunk tonight B A Yeah we can be young tonight C#m B A We don't care about what they sing C#m B Cause we don't believe in anything E B C#m Lets go out, and leave our phones, at home A We can be young tonight E B C#m Lets break out, and leave our phones, at home A We can get drunk tonight E B C#m Lets go out, and leave our phones, at home A We can be young tonight E B C#m Lets break out, and leave our phones, at home A We can get drunk tonight A We can be young tonight A E We can be young tonight
share this page

See Also: