E-Chords
Philippe B

Calorifère(Chords)

Philippe B

roll up this ad to continue

Key: C#m

C#m       F#m 
Tu pleures, tu dis 
C#m         F#m  
Que t'as peur du bonheur  
C#m           F#m 
Que les larmes dans tes yeux ne sont  
C#m           F#m 
Que ton vieux coeur qui fond  
C#m          F#m       C#m F#m 
Mais si tu mouilles mon lit, moi je dis  

E                 B 
Tant mieux, quand il pleut  
F#m          A 
C'est un peu le printemps  
   E        B             F#m       A 
Et tant pis pour ceux qui préfèrent l'hiver  

A            E         Bv2 Bb  
On va monter le calorifère  
A             E          Bv2 
Faire grimper la température 
   Bb A               E 
On va faire couler la champlure  
      Bv2     Bb      A 
Faire décoller la peinture  
                           C#m  F#m      C#m F#m  C#m   F#m     C#m F#m 
Laisse tes larmes tomber sur le calorifère            le calorifère 

C#m         F#m 
Tu pleures, tu dis  
C#m         F#m 
Que janvier ça t'écoeure  
C#m                   F#m 
Y'a des arbres de Noël dans les poubelles  
C#m             F#m 
Pis y fait noir à quatre heures  
C#m           F#m     C#m  F#m 
Mais quand s'étire la nuit, moi je dis  

E             B 
Tant mieux y'a un feu  
F#m       A 
Qui brûle dans nos ventres  
E          B           F#m          A 
Et remplit nos yeux de copeaux de lumière  

A            E         Bv2 Bb  
On va monter le calorifère  
A             E          Bv2 
Faire grimper la température 
   Bb A               E 
On va faire couler la champlure  
      Bv2     Bb      A 
Faire décoller la peinture  
                           C#m  F#m      C#m F#m  C#m   F#m     C#m F#m 
Laisse tes larmes tomber sur le calorifère            le calorifère 

Solo 
e|--------------------------------------------------------------------------------------------------| 
B|---9---9---9---9---9---9----7---7---5---5---5---5---4---4---2---2---2---2---2---2---2---2---4---4-| 
G|-9---9---9---9---9---9----8---8---6---6---6---6---4---4---2---2---1---1---1---1---2---2---4---4---| 
D|--------------------------------------------------------------------------------------------------|  
A|--------------------------------------------------------------------------------------------------| 
E|--------------------------------------------------------------------------------------------------| 
            1                              2 
e|---------|-----------------------------|--------------------------------------4--| 
B|---5---5-|--5---5---9---9----10----10--|---9---9----10----10----10----10-----5---| 
G|-6---6---|6---6---9---9---11----11----o|-9---9---11----11----11----11-------6----| 
D|---------|----------------------------o|-----------------------------------6-----| 
A|---------|-----------------------------|----------------------------------4------| 
E|---------|-----------------------------|-----------------------------------------|
share this page

See Also: