E-Chords
Papermoon

The Man At The Window(Chords)

Papermoon

roll up this ad to continue

Key: Am
Intro: 

 
    Am      C      C/A    G 
E|----------------------------| 
B|-----1------1------1------0-| 
G|---2------0------0------0---| 
D|----------------------------| 
A|-0------3------2------------| 
E|----------------------3-----| 
(x 2) 1. VERSE (Initially as INTRO): Am C C/A G Am C C/A G See, see how he looks at the sky Am C C/A G Am See, see how he watches the street C C/A G Am C C/A G Lost in the night when the world is asleep Am C C/A G D Free, how he wants to be free C Am G Isn't he a bit like you and me REFRAIN:
 
    Am       C/A C 
E|-------1-----------0-----| 
B|-----2-----------1---1---| 
G|---2-----------0-------0-| 
D|-------------------------| 
A|-0-------0-2-3-----------| 
E|-------------------------| 


    G 
E|-------3-----------3-----| 
B|-----0---0-------0---0---| 
G|---0-------0---0-------0-| 
D|-------------------------| 
A|-------------------------| 
E|-3-----------3-----------| 
Am C/A C G The man at the window Am C/A Is dreaming C G It seems that he had been forgotten Am C/A C No one knows where he is from G The man at the window is dreaming INTERLUDE 1 (as INTRO) 2. Verse: Am C C/A G Am C C/A G Look, look how he closes his eyes Am C C/A G Am Look, look how he's trying to hide C C/A G Am C C/A G No one can see what he's feeling inside Am C C/A G D Time is ticking away C Am G Every day is just another day (REFRAIN)
INTERLUDE 2: 

 
    D9          D4    D 
E|-------0-----3-----2-----| 
B|-----3---3-----3-----3---| 
G|---2-------2-----2-----2-| 
D|-0-----------------------| 
A|-------------------------| 
E|-------------------------| 
Bridge: Bm A D Bm Bm/A Take my hand and you will see, the world is smiling G D A Open your heart and you'll agree C D G G/F# Em Let the sunshine in, believe me D D7 You'll be what you wanted to be G to be (REFRAIN) (end on D)
share this page

See Also: