New Found Glory

Sonny(Chords)

New Found Glory

Key: Db

roll up this ad to continue

	        
Versão 1 
-======- 
 
 
Intro 
(1) Db E Db E A Abm A Abm  
(2) Db E Db E Db e Db e (x2) 
 
A    E 
 I'm sorry  
Db        E            A      Abm 
 I heard about the bad news today  
    A               Abm 
 a crowd of people around you  
Db       E        Db E 
 telling you it's ok  
     A          Abm            A   Abm 
 and everything happens for a reason  
 
 
Db         E                 Db       E       A      Abm 
 when you lose a part of yourself to somebody you know  
     A              Abm 
 it takes a lot to let go  
Db      E               Db    E 
 every breath that you remember  
 A              Abm        A         Abm 
 pictures fade away, but memory's forever  
 
|D         E                (A Abm F#) 
| an empty chair at all the tables  
|D                   E               (A Abm F#) 
| and always seeing you when all my days boil down  
|          D                   E 
| but its better where you're going anyway  
 
Repete Intro(2) 
 
A     E 
 I'm sorry  
Db        E             A     Abm 
 I heard about the bad news today  
       A              Abm 
 it's really hard to get through  
Db      E         Db     E 
 tough times and long days  
         A            Abm           A    Abm 
 but it really just depends on the season  
 
Db         E                 Db       E       A      Abm 
 when you lose a part of yourself to somebody you know  
     A              Abm 
 it takes a lot to let go  
Db      E               Db    E 
 every breath that you remember  
 A              Abm        A         Abm 
 pictures fade away, but memory's forever  
 
|D         E                (A Abm F#) 
| an empty chair at all the tables  
|D                   E               (A Abm F#)  E 
| and always seeing you when all my days boil down  
|D               E 
| for now we'll say good bye  
|A             Abm 
| we know it's not the last time  
|D            E               F# 
| I lost the best part of my day  
|          D                   E 
| but its better where you're going anyway 
 
Repete Intro + solo 
 
|D         E                (A Abm F#) 
| an empty chair at all the tables  
|D                   E               (A Abm F#)  E 
| and always seeing you when all my days boil down  
|D               E 
| for now we'll say good bye  
|A             Abm 
| we know it's not the last time  
|D            E               F# 
| I lost the best part of my day  
|D             E           A         Abm 
| This is the last thing I, I will remember 
|          D                   E 
| but its better where you're going anyway 
 
repete intro (1) 
 
Pra Bia ! Huehue sua cestinha ! 
 
_______________________________________________________ 
Contribuição: Erick Senzaki([email protected]) 
 
 
 
 
 
Versão 2 
-======- 
 
x - palm mute  
 
Intro/Verse 1 x6 - Guitar 1  
E|----------------------------------- 
B|----------------------------------- 
G|----------------------------------- 
D|-11-11-xxx-99-xxx-11-11-xxx-9999-0- 
A|-x--x--xxx-xx-xxx-x--x--xxx-xxxx-x- 
D|-7--7--xxx-77-xxx-7--7--xxx-7777-0- 
 
E|------------------------------ 
B|------------------------------ 
G|------------------------------ 
D|-77-xxx-66-xxx-77-xxx-666-444- 
A|-xx-xxx-xx-xxx-xx-xxx-xxx-xxx- 
D|-44-xxx-44-xxx-44-xxx-444-444-  
 
Intro/Verse 1&2 - Guitar 2 
E|---------------------------------------------------------------- 
B|---------------------------------------------------------------- 
G|---------------------------------------------------------------- 
D|-77-6h7-99-7-77-6h7-99-7-11-11-11h12-99-6h7-11-11-11h12-9-7-9-7- 
A|---------------------------------------------------------------- 
D|---------------------------------------------------------------- 
 
Chorus x2 - Guitar 1 
E|------------------------------------------------ 
B|------------------------------------------------ 
G|------------------------------------------------ 
D|-77777777-99999999-44-xxx-44-xxx-44-xxx-444-222- 
A|-55555555-77777777-44-xxx-44-xxx-44-xxx-444-222- 
D|-------------------44-xxx-44-xxx-44-xxx-444-222- 
             
 
Chorus x2- Guitar 2 
E|----------------------------------------------------------- 
B|----------------------------------------------------------- 
G|----------------------------------------------------------- 
D|-77777777-11111111-13-13-xxx-13 13-xxx-13-13-xxx-1313-1111- 
A|-55555555-77777777-9--9--xxx-9--9--xxx-9--9--xxx-999--777-- 
D|----------------------------------------------------------- 
             ^ - Those are 11's 
 
Pre-Verse - Both Guitars 
E|------------------- 
B|------------------- 
G|------------------- 
D|-77777777-99999999- 
A|-55555555-77777777- 
D|------------------- 
 
Verse - Guitar 2 
 
Guitar 1 Cuts Out Until 'Depends on the season' then: 
Verse x2 - Guitar 1 
 
Chorus x2 
 
Bridge x2 - Guitar 1 
E|------------------------------------- 
B|------------------------------------- 
G|------------------------------------- 
D|-77777777-99999999-44444444-22222222- 
A|-55555555-77777777-44444444-22222222- 
D|-------------------44444444-22222222- 
 
Bridge x2 - Guitar 2 
E|------------------------------------- 
B|------------------------------------- 
G|------------------------------------- 
D|-77777777-99999999-13131313-99999999- 
A|-55555555-77777777-99999999-77777777- 
D|------------------------------------- 
 
Pre-Verse 
 
Verse x2 - Guitar 1 
 
Solo - Guitar 2 
E|-------------------------------------------------- 
B|-------------------------------------------------- 
G|-------------------------------------------------- 
D|-77-6h7-99-7-11-11-11h12-99-6h7-11-11-11h12-9-7-9- 
A|-------------------------------------------------- 
D|-------------------------------------------------- 
 
E|------------------------------ 
B|------------------------------ 
G|------------------------------ 
D|-77-6h7-99-/16-14-12-11-12-11- 
A|------------------------------ 
D|------------------------------ 
 
E|---------------------------------------- 
B|-------------------------------17------- 
G|----14----14-16----16-14----14----14---- 
D|-14----14-------14-------14----------14- 
A|---------------------------------------- 
D|---------------------------------------- 
 
Chorus x2 
 
Bridge x4 
 
Outro - Guitar 1 
E|----------------------------------- 
B|----------------------------------- 
G|----------------------------------- 
D|-11-11-xxx-99-xxx-11-11-xxx-9999-0- 
A|-x--x--xxx-xx-xxx-x--x--xxx-xxxx-x- 
D|-7--7--xxx-77-xxx-7--7--xxx-7777-0- 
 
E|--------------------------------- 
B|--------------------------------- 
G|--------------------------------- 
D|-77-xxx-66-xxx-77-xxx-666-444-11- 
A|-xx-xxx-xx-xxx-xx-xxx-xxx-xxx-x-- 
D|-44-xxx-44-xxx-44-xxx-444-444-7--  
 
  
 
 
_______________________________________________________ 
Contribuição: Celo Penteado([email protected]) 

	        

See Also: