E-Chords
Neil Young

Harvest Moon(Chords)

Neil Young

roll up this ad to continue

Watch the video lesson
Key: D
Intro: D D/A D7M D7M/A (4x)  

Em7  
Come a little bit closer,  
                     D D/A D7M D7M/A  
hear what I have to say,                                
Em7  
Just like the children sleepin',                    
                          D D/A D7M D7M/A  
we could dream this night away.  


G  
But there's a full moon risin',  
                        D D/A D7M D7M/A  
let's go dancing in the light,  
G  
we know where the music's playin',  
                          D D/A D7M D7M/A  
let's go out and feel the night.  

G/A Because I'm still in love with you, G/A I want to see you dance again. G/A Because I'm still in love with you, D D/A D7M D7M/A on this harvest moon.
Em7 When we were strangers D D/A D7M D7M/A I watched you from afar. Em7 When we were lovers D D/A D7M D7M/A I loved you with all my heart. G But now it's gettin' late D D/A D7M D7M/A and the moon is climbing high. G I want to celebrate D D/A D7M D7M/A see it shining in your eye.
G/A Because I'm still in love with you, G/A I want to see you dance again. G/A Because I'm still in love with you, D D/A D7M D7M/A on this harvest moon.
Solo G D D/A D7M D7M/A (2x)
 

Transcribed and adapted for guitar 

e|----------------12-14-------------12----15-14-- 
B|-12-12-12-15-15-------12-12-15-15----15-------- 
G|----------------------------------------------- 
D|----------------------------------------------- 
A|----------------------------------------------- 
E|----------------------------------------------- 

e|-10-10--10--10-12--10-10--10-12--15-14--------- 
B|-12-12----12-----12-----12-------------15-12--- 
G|--------------------------------------------14- 
D|----------------------------------------------- 
A|----------------------------------------------- 
E|-----------------------------------------------
G/A Because I'm still in love with you, G/A I want to see you dance again. G/A Because I'm still in love with you, D D/A D7M D7M/A D on this harvest moon.
share this page

See Also: