E-Chords
MC Neguinho do Kaxeta

Perigosa(Chords)

MC Neguinho do Kaxeta

roll up this ad to continue

Key: A
Intro 

Bbm  Ebm  Gb  Ab 
        Bbm  Ebm  Gb  Ab 

    Bbm            Ebm       Gb        Ab 
E|-------13-13--------6-6--------9-9--------11-11-----| 
B|-11-14----------4-7-------7-11------11-13-----------| 
G|----------------------------------------------------| 
D|----------------------------------------------------| 
A|----------------------------------------------------| 
E|----------------------------------------------------| 
Bbm Ebm Gb Ab
E|-------13-13--------6-6--------9-9--------11-11-----| 
B|-11-14----------4-7-------7-11------11-13-----------| 
G|----------------------------------------------------| 
D|----------------------------------------------------| 
A|----------------------------------------------------| 
E|----------------------------------------------------| 
Bbm Ebm Incrivelmente, ela mente que nem sente Gb Tenta seduzir a gente Ab Se moscar, tu tá fodido Bbm Ebm Inteligente ao ponto de entrar na mente Gb Com propostas indecentes Ab Já fisgou vários amigos Bbm Ebm Porque ela é bem gostosa Gb Ab Sabe que é, encosta e te deixa em brasa Bbm Ebm Cheirosa e perigosa Gb Ab Te ganha nas palavras e tu leva pra casa Bbm Ebm Porque ela é bem gostosa Gb Ab Sabe que é, encosta e te deixa em brasa Bbm Ebm Cheirosa e perigosa Gb Ab Te ganha nas palavras e tu leva pra casa Bbm Ebm Dê uma chance à ela, apenas uma noite, a bela Gb Ab E conhecerás a pegada dessa moça Bbm Ebm Vai te enlouquecer, é fato, vai te dar prazer Gb Ab E quando for embora, teu coração vai na bolsa Bbm Ebm Sem piedade, segunda chance é só no game Gb Ab Cheia de maldade, premeditando enquanto geme Bbm Ebm Perdeu as contas de quantos por ela já chorou Gb Ab Te faz amar pra tu sofrer com tanto amor Bbm Ebm Porque ela é bem gostosa Gb Ab Sabe que é, encosta e te deixa em brasa Bbm Ebm Cheirosa e perigosa Gb Ab Te ganha nas palavras e tu leva pra casa Bbm Ebm Porque ela é bem gostosa Gb Ab Sabe que é, encosta e te deixa em brasa Bbm Ebm Cheirosa e perigosa Gb Ab Te ganha nas palavras e tu leva pra casa Solo Bbm Ebm Gb Ab Bbm Ebm Gb Ab Bbm Ebm
E|-13-11-9--------------------------------------------| 
B|---------9-11---11-11-11-11----11-11-11-6---6-6-6-6-| 
G|----------------------------------------------------| 
D|----------------------------------------------------| 
A|----------------------------------------------------| 
E|----------------------------------------------------| 
Gb Ab
E|----------------------------------------------------| 
B|-6-6-6-4---4-4-4-4--4-6-4-2-4-----------------------| 
G|-------------------------------1-3------------------| 
D|----------------------------------------------------| 
A|----------------------------------------------------| 
E|----------------------------------------------------| 
Bbm Ebm
E|-13-11-9--------------------------------------------| 
B|---------9-11---11-11-11-11----11-11-11-6---6-6-6-6-| 
G|----------------------------------------------------| 
D|----------------------------------------------------| 
A|----------------------------------------------------| 
E|----------------------------------------------------| 
Gb Ab
E|----------------------------------------------------| 
B|-6-6-6-4---4-4-4-4--4-6-4-2-4-----------------------| 
G|-------------------------------1-3------------------| 
D|----------------------------------------------------| 
A|----------------------------------------------------| 
E|----------------------------------------------------| 
Bbm Ebm Incrivelmente, ela mente que nem sente Gb Tenta seduzir a gente Ab Se moscar, tu tá fodido Bbm Ebm Inteligente ao ponto de entrar na mente Gb Com propostas indecentes Ab Já fisgou vários amigos Bbm Ebm Porque ela é bem gostosa Gb Ab Sabe que é, encosta e te deixa em brasa Bbm Ebm Cheirosa e perigosa Gb Ab Te ganha nas palavras e tu leva pra casa Bbm Ebm Porque ela é bem gostosa Gb Ab Sabe que é, encosta e te deixa em brasa Bbm Ebm Cheirosa e perigosa Gb Ab Te ganha nas palavras e tu leva pra casa Bbm Ebm Dê uma chance à ela, apenas uma noite, a bela Gb Ab E conhecerás a pegada dessa moça Bbm Ebm Vai te enlouquecer, é fato, vai te dar prazer Gb Ab E quando for embora, teu coração vai na bolsa Bbm Ebm Sem piedade, segunda chance é só no game Gb Ab Cheia de maldade, premeditando enquanto geme Bbm Ebm Perdeu as contas de quantos por ela já chorou Gb Ab Te faz amar pra tu sofrer com tanto amor Bbm Ebm Porque ela é bem gostosa Gb Ab Sabe que é, encosta e te deixa em brasa Bbm Ebm Cheirosa e perigosa Gb Ab Te ganha nas palavras e tu leva pra casa Bbm Ebm Porque ela é bem gostosa Gb Ab Sabe que é, encosta e te deixa em brasa Bbm Ebm Cheirosa e perigosa Gb Ab Te ganha nas palavras e tu leva pra casa Solo Bbm Ebm Gb Ab Bbm Ebm Gb Ab Bbm Ebm
E|-13-11-9--------------------------------------------| 
B|---------9-11---11-11-11-11----11-11-11-6---6-6-6-6-| 
G|----------------------------------------------------| 
D|----------------------------------------------------| 
A|----------------------------------------------------| 
E|----------------------------------------------------| 
Gb Ab
E|----------------------------------------------------| 
B|-6-6-6-4---4-4-4-4--4-6-4-2-4-----------------------| 
G|-------------------------------1-3------------------| 
D|----------------------------------------------------| 
A|----------------------------------------------------| 
E|----------------------------------------------------| 
Bbm Ebm
E|-13-11-9--------------------------------------------| 
B|---------9-11---11-11-11-11----11-11-11-6---6-6-6-6-| 
G|----------------------------------------------------| 
D|----------------------------------------------------| 
A|----------------------------------------------------| 
E|----------------------------------------------------| 
Gb Ab
E|----------------------------------------------------| 
B|-6-6-6-4---4-4-4-4--4-6-4-2-4-----------------------| 
G|-------------------------------1-3------------------| 
D|----------------------------------------------------| 
A|----------------------------------------------------| 
E|----------------------------------------------------|
share this page

See Also: