Maestrick

Water Birds(Chords)

Maestrick

Key: G

roll up this ad to continue

	        Intro G  C  Em  Am  D 
      G  C  Em  Am  D 
      G  C  G 
      G  C  D 
      G 
      C  D/C  C  D/C  
      C  D/C  C  D/C 

E|------------------------------------------| 
B|-0--------3-1---0--------1----0------0----| 
G|-0----0-----0-------2------------0-----2--| 
D|-0--0---0---2--2--2----2----2------2------| 
A|------------3------------3----------------| 
E|-3----------------------------------------|
E|------------------------------------------| 
B|-----------3-1----0-----------------------| 
G|-0-----------2---------2----0-------------| 
D|-2----2------2--2----2-0--0-----4----2----| 
A|----2---2----0----------------------------| 
E|-0---------------------2------2----2----2-|
E|------------------------------------------| 
B|-0--------3-1---0--------1----0------0----| 
G|-0----0-----0-------2------------0-----2--| 
D|-0--0---0---2--2--2----2----2------2------| 
A|------------3------------3----------------| 
E|-3----------------------------------------|
E|------------------------------------------| 
B|----------3-1----0------------------------| 
G|-0----------2---------0-------------------| 
D|-2----2-----2--2----2-0---4---------------| 
A|----2---2---0-----------------------------| 
E|-0--------------------2-------------------|
C A fresh wind D/C They come C D/C Whistling their songs Em Bm/D C G/B Em Bringers of beauty Am Am9 Am D Keepers of lore C D/C A silent wave C D/C Where science and faith Em Bm/D C G/B Em Cross an old bridge Am Am9 Am D/F# Long forgotten G G/C G/D Through the ages they're reborn G G/C G/D To alert mankind and restore Em Am D Bm7 An old conscience flows as rivers and oceans C D F G A real aria of nature C F Water birds come to clean our feelings Dm7 Flying over the hills G Above the pristine and shining blue sea C Avatars of the nature F They bring us inspiration Dm To live the art of life G In a better way F C Water birds Fm7 C4 C (Nature is singing her swan song B Am By the conduction of men D/F# G It's the final act E/G# A There's no turning back) ( D Gm/D D Bb9/D ) Solo Gm Cm Gm Cm Gm Cm Gm A Gm A Gm Gm A Gm A F G F G C D/C C D/C C D/C C D/C C D/C Pure breeze they're here C D/C To wash our tears Em Bm/D C G/B Em Lighting the path of Am Am9 Am D/F# All that was gone G G/C G/D Through the ages they're reborn G G/C G/D To alert mankind and restore Em Am D Bm7 A new conscience flows as rivers and oceans C D F G An invitation to play a symphony of nature C F Water birds come to clean our feelings Dm7 Flying over the hills G Above the pristine and shining blue sea C Avatars of the nature F They bring us inspiration Dm To live the art of life G In a better way F G Water C F Water birds come to clean our feelings Dm7 Flying over the hills G Above the pristine and shining blue sea (Water birds sing the song to keep the light shining) C Avatars of the nature F They bring us inspiration Dm To live the art of life G In a better way (Water birds sing the song to keep the light shining) F C Water birds

Written by Fbio Caldeira

See Also: