E-Chords
Los Amigos Invisibles

Popurri Que Rico, Yo No Se, Amor(Chords)

Los Amigos Invisibles

Key: C
***Que Rico*** 


   C Em Em 
e|------3-66-66-|--------888--777--555-|----------3-66-66-|------3-| 
B|-/5-5-5-66-66-|-/5-5-5-888--777--555-|-/5---5---5-66-66-|-/5-5-5-| 
G|-/5-4-4-------|-/5-5-5---------------|-/5---4---4-------|-/5-4-4-| 
D|-/5-5---------|----------------------|-/5---5-----------|-/5-5---| 
A|--------------|----------------------|------------------|--------| 
E|--------------|----------------------|------------------|--------| 


Nunca yo te había dicho, lo rico que estar contigo 
e|-------------|-------|--------------| 
B|-------------|-------|-----1111-----| 
G|-12||||12h14-|-%-%-%-|-1212----1414-| 


Cada vez que yo te veo se alborotan mis deseos 
e|-------------|-------| 
B|-------------|-------| 
G|-12||||12h14-|-%-%-%-| 


  G#add9      D# 
Ya no puedo imaginarme una noche sin tocarte 
e|- 8------------| 
B|- 9----------6-| 
G|- 8----------7-| 
D|--8----------8-| 
A|-------------6-| 
E|---------------| 

Y cuando me hablas me provoca comerme tu linda boca 
e|------3-| 
B|-/5-5-5-| 
G|-/5-4-4-| 
D|-/5-5---| 
A|--------| 
E|--------| 


e|----8-----|-/10-8-----|-----------------------------|-3-3-|------|-33-44-3-| 
B|-/10-10-9-|-------9-8-|-----------------------------|-5-5-|-8-8--|-55-66-5-| 
G|----------|-----------|-9-10-11-11---11-1010---10-9-|-5-5-|--9-7-|-55-66-5-| 


En las malas y en las buenas, siempre tu serás mi nena 
e|-------------|-------|--------------| 
B|-------------|-------|-----1111-----| 
G|-12||||12h14-|-%-%-%-|-1212----1414-| 


Dime que todo eso es mío, para cubrirme del frío 
e|-------------|-------| 
B|-------------|-------| 
G|-12||||12h14-|-%-%-%-| 



  G#add9      D# 
Y cuando me haces cariñitos, yo me siento livianito 
e|- 8------------| 
B|- 9----------6-| 
G|- 8----------7-| 
D|--8----------8-| 
A|-------------6-| 
E|---------------| 

Al mirarte sin ropita, todo el sueño se me quita 
e|------3-| 
B|-/5-5-5-| 
G|-/5-4-4-| 
D|-/5-5---| 
A|--------| 
E|--------| 

e|------8-----|-/10-8-----|-----------------------------|-3-3-|-33-44-3-| 
B|-/10---10-9-|-------9-8-|-----------------------------|-5-5-|-55-66-5-| 
G|------------|-----------|-9-10-11-11---11-1010---11-9-|-5-5-|-55-66-5-| 


   Dm7       C7       Fmaj7  Em7          D7       Gmaj7 
   Si me dejas yo me muero, si me esperas mas te quiero 
e|-5--------3---------8---|---7-----------5---------10---| 
B|-6--------5---------8---|---8-----------7---------12---| 
G|-5--------3---------9---|---7-----------5---------11---| 
D|-7--------5--------10---|---9-----------7---------12---| 
A|-5--------3---------8---|---7-----------5---------10---| 
E|------------------------|------------------------------| 

   No te vayas de mi lado que sin ti me siento malo 
e|-5------5---|-4-----4---|-7-----7---6-6-| 
B|-6------6---|-5-----5---|-8-----8---7-7-| 
G|-7------7---|-6-----6---|-9-----9---8-8-| 

  Si me esperas mas te quiero   oh 
e|-5------5---|-4---4----4---4---4-| 
B|-6------6---|-5---5----5---5---5-| 
G|-7------7---|-6---6----6---6---6-| 


***YO NO SE*** 

e|--------------------------------|---------------------------------| 
B|--8-----101010-8-10-10/12---8-8-|--8------------------------------| x2 
G|-9-10------------------------9--|-9-10---101010-9-7-9----10-10/12-| 
D|--------------------------------|---------------------------------| 


Yo no sé, Que es lo que hay en tu amor Que hay en ti? 
e|-----------------| 
B|-5---5---7---6---| 
G|-5---4---7---6---| 
D|-3---3---5---5---| 
A|-----------------| 
E|-----------------| 

Yo no sé, Que me muero de amor por ti 
e|---------3-------| 
B|-5---5---5---5---| 
G|-5---4---4---6---| 
D|-3---3---5---5---| 
A|-----------------| 
E|-----------------| 


   G 
Yo no sé, Si es algo en tu mirar o en tu piel 
e|-------------------------------------------|------------| 
B|-------------------------------------------|----1111----| 
G|-12h14-12h14-12---14-1212---12h14-12h14-12-|-12------14-| 
A|-------------------------14----------------|------------| 

   G 
  Que será? No puedo estar sin ti 
E|-------------------------------------------| 
B|-------------------------------------------| 
G|-12h14-12h14-12---14-1212---12h14-12h14-12-| 
A|-------------------------14----------------| 



   Fmaj7                     Em7 
Será que hay algo entre los dos 
e|---8---|              |---7---| 
B|--10---|              |---8---| 
G|---9---|              |---7---| 
D|--10---|              |---9---| 
A|---8---|              |---7---| 
E|-------|              |-------| 


Am7              Dm7    G            Cmaj7  F   G 
Que nos acerca más      Que nos hace vibrar de amor 
e|---5---|  |---5---|  |---3---|    |---3---5---7---| 
B|---5---|  |---6---|  |---3---|    |---5---6---8---| 
G|---5---|  |---5---|  |---4---|    |---4---5---7---| 
D|---5---|  |---7---|  |---5---|    |---5---7---9---| 
A|---7---|  |---5---|  |---5---|    |---3-----------| 
E|---5---|  |-------|  |---3---|    |---------------| 


    Fmaj7               Em7                   A7                 G 
  No sé, ni lo quiero saber Tan solo quiero estar siempre cerca de ti 
e|---8-------------------7--------------------5-| 
B|--10-------------------8--------------------5-| 
G|---9-------------------7--------------------6-| 
D|--10-------------------9--------------------5-| 
A|---8-------------------7--------------------7-| 
E|--------------------------------------------5-| 


Yo no sé Que tienes en tu forma de amar 
e|-------------------------------------------|------------| 
B|-------------------------------------------|----1111----| 
G|-12h14-12h14-12---14-1212---12h14-12h14-12-|-12------14-| 
A|-------------------------14----------------|------------| 

Que por ti late mi corazón 
e|-------------------------------------------| 
B|-------------------------------------------| 
G|-12h14-12h14-12---14-1212---12h14-12h14-12-| 
A|-------------------------14----------------| 

e|--------------------------------|---------------------------------| 
B|--8-----101010-8-10-10/12---8-8-|--8------------------------------| 
G|-9-10------------------------9--|-9-10---101010-9-7-9----10-10/12-| 
D|--------------------------------|---------------------------------| 

e|--------------------------------------|-----------------------12-| 
B|--8-----101010-8-10-10/12---15---15---|-101010-8-----------------| 
G|-9-10-------------------------15---14-|----------10p9---11/12----| 
D|--------------------------------------|--------------------------| 



   Fmaj7                     Em7 
Será que hay algo entre los dos 
e|---8---|              |---7---| 
B|--10---|              |---8---| 
G|---9---|              |---7---| 
D|--10---|              |---9---| 
A|---8---|              |---7---| 
E|-------|              |-------| 


Am7              Dm7    G            Cmaj7  F   G 
Que nos acerca más      Que nos hace vibrar de amor 
e|---5---|  |---5---|  |---3---|    |---3---5---7---| 
B|---5---|  |---6---|  |---3---|    |---5---6---8---| 
G|---5---|  |---5---|  |---4---|    |---4---5---7---| 
D|---5---|  |---7---|  |---5---|    |---5---7---9---| 
A|---7---|  |---5---|  |---5---|    |---3-----------| 
E|---5---|  |-------|  |---3---|    |---------------| 


    Fmaj7               Em7                   A7                 G 
  No sé, ni lo quiero saber Tan solo quiero estar siempre cerca de ti 
e|---8-------------------7--------------------5-| 
B|--10-------------------8--------------------5-| 
G|---9-------------------7--------------------6-| 
D|--10-------------------9--------------------5-| 
A|---8-------------------7--------------------7-| 
E|--------------------------------------------5-| 


***AMOR*** 



  G6 
e|-8-|   e|-/12-10-8----8----| 
B|-5-|   B|----------10---10-| 
G|-5-| 
D|-5-| 


Versos/Coros 

  Am        F        Em      Em 
e|-5-|   e|-5-|   e|-4-|   e|-7-| 
B|-5-|   B|-6-|   B|-5-|   B|-8-| 
G|-5-|   G|-5-|   G|-4-|   G|-9-| 
D|-7-|   D|-7-|   D|-8-|   D|-9-| 
A|---|   A|---|   A|---|   A|---| 
E|---|   E|---|   E|---|   E|---| 

roll up this ad to continue

share this page

See Also: