Legião Urbana

Índios (ver. Acústico MTV)(Chords)

Legião Urbana

Key: Am

roll up this ad to continue

	        Introdução:  
e|-3---3-3----5--7-----------|  
B|-------------------7--5--3-| X3  
G|-4--4-4-4---5--7-----------|  
D|-------------------7--6--4-|  
  
e|---3-2-3---3-2-3---3-2-3---3-2-3----5-3-5---5-3-5---5-3-5---5-3-5-|  
B|-1-------1-------1-------1--------3-------3-------3-------3-------|  
  
e|---7-5-7---7-5-7---7-5-7---7-5-7----7-5-7---7-5-7---7-5-7---7-5-7-|  
B|-3-------3-------3-------3--------5-------5-------5-------5-------|  
  
e|---8-7-8---8-7-8---8-7-8---8-7-8----8-7-8---8-7-8---8-7-8---8-7-8-|  
B|-5-------5-------5-------5--------7-------7-------7-------7-------|  
  
e|---10-8-10---10-8-10---10-8-10---10-8-10-|  
B|-7---------7---------7---------7---------|  
  
e|---10-8-10---10-8-10---10-8-10---10-8-10-|  
B|-8---------8---------8---------8---------| 
Am7 Quem me dera, ao menos uma vez, D Ter de volta todo ouro que entreguei Bm A quem conseguiu me convencer que era prova de amizade Em Se alguém levasse embora até o que eu não tinha Am7 Quem me dera, ao menos uma vez, D Esquecer que acreditei que era por brincadeira Bm Que se cortava sempre um pano-de-chão Em De linho nobre e pura seda. Am7 Quem me dera, ao menos uma vez, D Explicar o que ninguém consegue entender: Bm Em Que o que aconteceu ainda está por vir e o futuro não é mais como era antigamente. Am7 Quem me dera, ao menos uma vez, D Provar que quem tem mais do que precisa ter Bm Quase sempre se convence que não tem o bastante Em E fala demais por não ter nada a dizer Am7 Quem me dera, ao menos uma vez, D Que o mais simples fosse visto como o mais importante, Bm Mas nos deram espelhos Em E vimos um mundo doente. Am7 Quem me dera, ao menos uma vez, D Entender como um só Deus ao mesmo tempo é três Bm E esse mesmo Deus foi morto por vocês Em É só maldade então, deixar um Deus tão triste
C Bm Am D Eu quis o perigo e até sangrei sozinho, entenda. G D/F# Em Assim pude trazer você de volta pra mim, C Quando descobri que é sempre só você Bm G D/F# que me entende do inicio ao fim Em C D E é só você que tem a cura para o meu vício de insistir nessa saudade que eu sinto Dm G De tudo que eu ainda não vi...
e|---3-2-3---3-2-3---3-2-3---3-2-3----5-3-5---5-3-5---5-3-5---5-3-5-|  
B|-1-------1-------1-------1--------3-------3-------3-------3-------|  
  
e|---7-5-7---7-5-7---7-5-7---7-5-7----7-5-7---7-5-7---7-5-7---7-5-7-|  
B|-3-------3-------3-------3--------5-------5-------5-------5-------|  
  
e|---8-7-8---8-7-8---8-7-8---8-7-8----8-7-8---8-7-8---8-7-8---8-7-8-|  
B|-5-------5-------5-------5--------7-------7-------7-------7-------|  
  
e|---10-8-10---10-8-10---10-8-10---10-8-10-|  
B|-7---------7---------7---------7---------|  
  
e|---10-8-10---10-8-10---10-8-10---10-8-10-|  
B|-8---------8---------8---------8---------| 
Am7 Quem me dera, ao menos uma vez, D Acreditar por um instante em tudo que existe Bm E acreditar que o mundo é perfeito Em E que todas as pessoas são felizes Am7 Quem me dera, ao menos uma vez, D Fazer com que o mundo saiba que seu nome Bm Está em tudo e mesmo assim Em Ninguém lhe diz ao menos obrigado. Am7 Quem me dera, ao menos uma vez, D Bm Como a mais bela tribo, dos mais belos índios, Em Não ser atacado por ser inocente.
C Bm Am D Eu quis o perigo e até sangrei sozinho, entenda. G D/F# Em Assim pude trazer você de volta pra mim, C Quando descobri que é sempre só você Bm G D/F# que me entende do inicio ao fim Em C D E é só você que tem a cura para o meu vício de insistir nessa saudade que eu sinto Dm G De tudo que eu ainda não vi... C F Nos deram espelhos e vimos um mundo doente G Tentei chorar e não consegui.
Final (Acústico MTV)
E|----------------------------------------------------------------------------|  
B|-------13-------11---------10------8--------6------5--------5/7------8------|  
G|----------0--------0----------8-------0--------0------3---------------------|  
D|------------------------0-----------------4---------------------------------|  
A|-12----------10-------0-9--------7------0-5-------4------5/7----8/10--------|  
E|----------------------------------------------------------------------------|  
  
E|--------------------------------------------------------------2-2-2--2-2----|  
B|-------11-----10----------8------3-3--------1-----1---1-1-----3-3-3--2-2----|  
G|----------0------8----------0--------0--------0-----0-----0---2-2-2--0-0----|  
D|-----------------------6----------------2---------------------0-0-0--0-0----|  
A|-10---------9--------0-7-------5--------3-------3-------------0-0-0--2-2----|  
E|----------------------------------------0---------------------0-0-0--3-3----|  
  
E|--------------------------------------------------------------2-2-2--2--2-2-|  
B|-------11-----10----------8------3-3--------1-----1-----------3-3-3--2--2-2-|  
G|----------0------8----------0--------0--------0-----0---------2-2-2--0--0-0-|  
D|-----------------------6----------------2---------------------0-0-0--0--0-0-|  
A|-10---------9--------0-7-------5--------3-------3-------------0-0-0--2--2-2-|  
E|----------------------------------------0---------------------0-0-0--3--3-3-|  
  
E|------------3---------------------------------------------------------------|  
B|----------------------------------------------------------------------------|  
G|----------------------------------------------------------------------------|  
D|----------------------------------------------------------------------------|  
A|----------------------------------------------------------------------------|  
E|----------------------------------------------------------------------------| 

Written by Renato Junior Manfredini

See Also: