E-Chords
Lairton e Seus Teclados

Desilusão(Chords)

Lairton e Seus Teclados

roll up this ad to continue

Key: A
A          C#m         D         F#m7 E 
Não tenho culpa desse amor acontecer,  
     D                E D E A  
Foi você quem quis assim. 
     C#m          D          F#m7 E 
Sem você eu vou ficar na solidão  
     D           A D E A   Am 
E magoar meu coração. 
          Am7  Am 
Tudo começou  
                          Dm   G 
Na primeira vez que eu te vi .  
                     C 
Seu jeitinho de me olhar,  
                  F 
Seu jeitinho de falar,  
                  E    Am 
Seu jeitinho de sorrir.  
               Am7   Am        
O tempo foi passando  
                      Dm   G  
Eu não consegui te esquecer, 
                     C 
Onde quer que eu estivesse,  
                         F  
Qualquer coisa que eu fizesse  
                E D E 
Só pensava em você. 
A          C#m         D        F#m7 E      
Não tenho culpa desse amor acontecer  
     D                E D E A 
Foi você quem quis assim, 
     C#m          D          F#m7 E   
Sem você eu vou ficar na solidão  
    D            E   Am    
E magoar meu coração. 

Solo: Am Dm G C Am 

e--------------------------------------------------------- 
B--10-12-13-12-10----10----------------------------------- 
G-----------------12----12-10-12----14-12-10-12-10-9-10--- 
D--------------------------------------------------------- 
A--------------------------------------------------------- 
E--------------------------------------------------------- 

e---------------------------13-12-10------------- 
B---------------------12-------------13-12-10---- 
G--7-10-12---14-12-14---------------------------- 
D------------------------------------------------ 
A------------------------------------------------ 
E------------------------------------------------ 
Am7 Am Olha meu amor Dm G Eu não posso aguentar C A maior desilusão F E D E É querer ter e não conseguir e nem sequer tocar.
share this page

See Also: