Kud

Zeehondencentra(Chords)

Kud

Key: C

roll up this ad to continue

	        Intro 
              C7M          Am7                    Dm7                G7          C7M 
Dames en heren, ons volgende nummertje gaat over het zeehondencentrum 
                     Am7                                   Dm7 
En zoals altijd weer Bas van der Bassenveld op de basgitaar 
G7                                              C7M 
En Bas, speel je 't deze keer wel goed jongen? 
                            Am7             Dm7  G7 
Dat is het verkeerde nummer Bas, nee grapje 

Verse 1:

C7M Am7 Dm7 G7 Tijdens onze eerste date, name ik je mee naar verschillende zeehondencentra C7M Am7 Dm7 G7 Vol fascinatie staarden wij naar deze schattige bolletjes vacht C7M Am7 Dm7 Er is niet meer waar jij meer van houdt dan een zeehond G7 C7M Maar dan niet van het beestje, maar van zijn bont Am7 Dm7 G7 C7M Niets vrolijkt jou meer op dan het gekraak van een jong zeehond schedeltje onder jouw hak
Cma Am7 Dm7 G7 Een zeehondje doodslaan brengt ons dichter bij elkaar C7M Am7 Dm7 G7 Een levenloos lichaampje en dat enkel om zijn haar
Solo Akkoorden tijdens Solo: |C7M Am7|Dm7 G7| 2x
e |--15-13-12-------------12-------------------------------------| 
B |-----------15---13--15--------------------12-13--15--13-12-13-| 
G |---------------------------14---14-12-14----------------------| 
D |--------------------------------------------------------------| 
A |--------------------------------------------------------------| 
E |--------------------------------------------------------------| 

e |--15-13-12-------------12-------------------------------------| 
B |------------15--13--15-----------------15-13-12-13------------| 
G |---------------------------12----12-14------------------------| 
D |--------------------------------------------------------------| 
A |--------------------------------------------------------------| 
E |--------------------------------------------------------------| 

Verse 2:

C7M Am7 Dm7 G7 C7M Nu ben ik het niet helemaal met je hobby's eens maar je bent zo knap dat ik het jou niet kan verbieden Am7 Dm7 G7 C7M Ik denk me altijd in dat de zeehonden hetzelfde zouden doen als zij in mijn schoenen zouden staan Am7 Dm7 G7 In mijn met bont bekleedde schoenen C7M In mijn met bont bekleedde schoenen Am7 Dm7 G7 In mijn met bont bekleedde schoenen
C7M Am7 Dm7 G7 Een zeehondje doodslaan brengt ons dichter bij elkaar C7M Am7 Dm7 G7 Een levenloos lichaampje en dat enkel om zijn haar C7

See Also: