E-Chords
Kevin Denney

That's Just Jessie(Chords)

Kevin Denney

Key: F
Capo on 3rd fret
--==  ==-- 
 
(Key of F) 
 
(Intro)   Gsus2, Asus2 
 
(Verse 1) 
Gsus2 
Sometimes in the mornin' my coffee gets ice cold 
    Asus2 
And I'll burn up three cigarettes b'for I have my first smoke 
        Gsus2 
Miss my exit on my way to work every now and then 
         Asus2 
I always blame it on the traffic when they ask me where I've been 
         Gsus2 
And in a crowded elevator I start hummin' that old song 
Asus2 
There's no way of knowing when that urge will come along 
           Gsus2 
I've been stuck in some meetin' look down at my legal pad 
        Asus2 
And see hearts and flowers, and butterflies and I can't help but laugh 
 
(Chorus) 
                    Dsus2 
(1,2) That's just a dirt road some rainy night 
 
  (3) In a white cotton dress 
                    Bmsus 
(1,2) That's just a back seat and some muskadine wine 
                    Bmsus 
  (3) That's just a wildfire that I ain't put out yet 
        Em 
That's just auburn hair brushin' 'cross my cheek 
                                   Asus2 
And those kiss me green eyes smilin' back at me 
               Dsus2 
That's just my mind jumpin' fences once again 
            Bmsus 
But I'll be fine once I get it rowed back in 
   Em                                Asus2 
I know sometimes I may act a little crazy 
                    (repeat intro) 
(1) But that's just Jessie 
                    Dsus2 
(2) But that's just Jessie 
 
(Verse 2) 
Gsus2 
Sometimes in the evenin' I hear bare-feet in the hall 
      Asus2 
And I see a slender silhouette dance across the wall 
       Gsus2 
Then I catch then scent of jasmine perfume in the wind 
      Asus2 
And I know it's her sweet memory commin' back again 
 
(Chorus x2, 2nd time into fade-out) 
 
-------------------------------------------------------------------------- 
 
(Intro tabs - Also be played through verses for full effect) 
E ----------------------------------------------------- 
B --3-----2-----0-----2-------3-----2-----0-----2------ 
G ----2-----2-----2-----2-------2-----2-----2-----2---- 
D ------0-----0-----0-----0-------2-----2-----2-----2-- 
A ----------------------------0------------------------ 
E --3-------------------------------------------------- 
 
(Chords) 
 
   Gsus2    Asus2    Dsus2    Bmsus    Em 
E ----3---------0--------0--------0-----0-- 
B ----3---------0--------3--------2-----0-- 
G ----2---------2--------2--------4-----0-- 
D ----0---------2--------0--------4-----2-- 
A ----x---------0-----------------2-----2-- 
E ----3---------------------------------0--
Tabbed by: Dustin Landry [email protected]

roll up this ad to continue

share this page

See Also: