E-Chords
Kettcar

Zurück Aus Ohlsdorf(Chords)

Kettcar

roll up this ad to continue

Key: C
Capo on 8th fret
 


 
   C           F           Am       G 
e|---------------------------------------------| 
B|-1--------1--1--------1--1-------0--------0--| 
G|------0-----------2----------2--------0------| 
D|----2---2-------3---3------2---2----0---0----| 
A|-3-----------3-----------0-------------------| 
E|---------------------------------3-----------| 

Bridge: 
   Dm        Fmaj7   C    C9     G 
e|-1-------1-0-------0----------------------| 
B|-----3---------1--------3---1--3---1---0--| 
G|---2---2-----2---2----0---0------0---0----| 
D|-0----------------------------------------| 
A|-----------3-------3----------------------| 
E|-------------------------------3----------| 

Outro/Er sah ... 
   C           G       Am       F 
e|--------------------------------------------| 
B|-1--------1--1--------1--1-------1-------1--| 
G|------0-----------0----------2-------2------| 
D|----2---2-------0---0------2---2---3---3----| 
A|-3-----------------------0-------3----------| 
E|-------------3------------------------------| 

C F Ich war spät und rutschte hinten, Am G In die unbesetzten Reihen. C F Am G Es waren nicht viele gekommen und vorne stand jemand allein C F Am G und er erzählte etwas hölzern die Geschichte eines Lebens. C F Am G Von dem ich nicht viel wusste, nur das es kurz war und der Kampf darum vergebens... Dm Fmaj7 C G Dm Fmaj7 C G und die Frau vor mir sagte ihrer Nachbarin ins Ohr, Dm Fmaj7 C G das er ein Schatten seiner selbst war und immer mehr Gewicht verlor, Dm Fmaj7 C G dass er immer tapfer sagte, ich hab die Schnauze noch nicht voll Dm Fmaj7 Fmaj7 Fmaj7 C F und das das Ding in seinem Kopf so groß wie ein Golfball gewesen sein soll. Am G Wir sind vor Jahren öfter zusammen C F Am G C um die Häuser gezogen und dann irgendwann nicht mehr... C F Am G C F Am G Seine Mutter sagte später, dass er häufig von mir sprach, C F Am G das sie froh sei das ich gekommen bin. Ich hatte ehrlich gesagt C F Am G ziemlich lange überlegt ob ich wirklich kommen sollte. C F Am G Dm Fmaj7 C G Er hat sich irgendwann bei mir nicht mehr gemeldet, weil ich mich melden wollte... Dm Fmaj7 C G Ich erinnere mich wie er sagte als wir durch die Straßen gingen, Dm Fmaj7 Fmaj7 Fmaj7 C F dass er gern mal nach Roskilde will aber allein machts keinen Spaß und keinen Sinn... Am G Wir sind vor Jahren öfter zusammen C F Am G C F Am G um die Häuser gezogen und dann irgendwann nicht mehr... C G Am F Er sah immer noch gut aus wie er so friedlich da lag, in seinem C G Am F schwarzen Anzug, in dem hellen Sarg, als würde er C G Am F C gleich zu mir sagen, schmeiß die Blumen weg und raus durch die Tür. Am F C Lass uns noch einmal um die Häuser ziehen wie früher... C F Am G C
share this page

See Also: