E-Chords
Josh Farro

Color Rush(Chords)

Josh Farro

roll up this ad to continue

Key: B
Intro e Refrão: 

 
    B  F#  C#  E 
E|-7--14---9--12----------------------------------------------------------------| 
B|-7--14---9--12----------------------------------------------------------------| 
G|-8--15--10--13----------------------------------------------------------------| 
D|-9--16--11--14----------------------------------------------------------------| 
A|------------------------------------------------------------------------------| 
E|------------------------------------------------------------------------------| 
 

Pré-refrão: 

 
E|-----------------------------------------------------------------------------------| 
B|-----------------------------------------------------------------------------------| 
G|---8-8-8-8-8-8---15--15--15--15--15--15---10--10--10--10--10---13--13--13--13--13--| 
D|--9-9-9-9-9-9--16--16--16--16--16--16---11--11--11--11--11---14--14--14--14--14----| 
A|-----------------------------------------------------------------------------------| 
E|-----------------------------------------------------------------------------------| 
 

Abafado: 

 
E|-----------------------------------------------------------------------------| 
B|-----------------------------------------------------------------------------| 
G|-3-6----4--------------------------------------------------------------------| 
D|-4-6-2--4--------------------------------------------------------------------| 
A|-4-4-2--2--------------------------------------------------------------------| 
E|-2---0-----------------------------------------------------------------------| 
 

Solo: 
 
E|------------------------------------------------------------------------------| 
B|------------------------------------------------------------------------------| 
G|------------------------------------------------------------------------------| 
D|--9-9-9-9-16-16-16-16-18-18-18-18--11-11-14-14--------------------------------| 
A|------------------------------------------------------------------------------| 
E|------------------------------------------------------------------------------| 
(Intro) (sem guitarra) I've got you on my mind Like a symphony of melodies that climb I've got you in my sight But half the time I wonder If our feelings could align Pré-refrão: Your reflection Carries through the night So bright
B F# You left C# E A stream of color rush B F# In my head C# E Over the black and white B F# A deep breath C# E Under the water B F# You are a blinding love C# E A rush in my head
(Intro) (sem guitarra) I've got you in my reach Like a secret that's kept hidden underneath Pré-refrão: I've got to make you see 'Cause everytime I shut my eyes You're staring back at me
B F# You left C# E A stream of color rush B F# In my head C# E Over the black and white B F# A deep breath C# E Under the water B F# You are a blinding love C# E A rush in my head
(Abafado) Rush in my head You Rush in my head (Solo) You Rush in my head You Rush in my head (sem guitarra) You left A stream of color rush In my head
B F# You left C# E A stream of color rush B F# In my head C# E Over the black and white B F# A deep breath C# E Under the water B F# You are a blinding love C# E A rush in my head
(Intro) A blinding love B A rush in my head
share this page

See Also: